PrimaNota.ru - самый крупный в мире бесплатный архив песенных текстов, аккордов, табулатур и нот


The Aller Værste - Hekt - таба, видео

Регистрация Запомнить меня
Войти через:  Facebook Google Twitter Vk Yandex Mail.ru

The Aller Værste - Hekt - таба, видео

Печатать
Просмотров: 135
Уроки эстрадного вокала в Санкт-Петербурге
I would recommend to play the [Cm] and [G] like this:
e|-----------------------------8--------7-----|
B|-----------------------------8--------8-----|
G|-----------------------------8--------7-----|
D|-----------------------------10-------9-----|
A|-----------------------------10-------10----|
E|-----------------------------8--------x-----|

---------------------------------------------------------

Intro:
e|--------------------------------------------|
B|--------------------------------------------|
G|--------8~~~--------------------------------|
D|--10~~~---------9-10-9----------------------|
A|-------------11--------11-10-11-8~~~--------|
E|--------------------------------------------|

e|--------------------------------------------|
B|--------------------------8-----------------|
G|-------------------7-8-10---10-8-9/10-7~~~--|
D|----------9h10~~~---------------------------|
A|--9h10~~~-----------------------------------|
E|--------------------------------------------|

e|--------------------------------------------|
B|---------9-8~~~--8-9-11-9-8-----------------|
G|--7h8~~~--------------------8/10-7~~~-------|
D|--------------------------------------------|
A|--------------------------------------------|
E|--------------------------------------------|

e|--------------------------------------------|
B|--------------------------------------------|
G|----------7-8~~~----------------------------|
D|--9-10~~~------------9-10-9-----------------|
A|------------------11--------11-10-11-8~~~---|
E|--------------------------------------------|

Cm           
Jeg fryser i hodet 
G            Cm
Vil hjem til meg selv 
Cm
Det vakke no gøy ute 
G            Cm          G
Likevel 
Cm 
Du knuste en rute 
G            Cm
Jeg knuste en til 
Cm
Nå knuser alle 
G            Cm
De ruter de vil 

e|--11-11-11-11-11-11-11-11-10-8---------------|
B|--11-11-11-11-11-11-11-11-10-8---------/17---|
G|---------------------------------|x4|--------|
D|---------------------------------------------|
A|---------------------------------------------|
E|---------------------------------------------|

Cm
Det vakke noen sjanser 
G            Cm          G
De sjanser vi tok 
Cm
Og mannen med boka 
G
Var bare en mann med en bok 

e|--7--6--7--10---------------------------------------|
B|--8--8--8--11---------------------------------------|
G|----------------------------------------------------|
D|-[Repeat this in the background during the bridge]--|
A|----------------------------------------------------|
E|----------------------------------------------------|

Men jeg skulle ønske jeg kunne høre deg le igjen 

e|----------------------------------------------------|
B|--------------6---5p3-----------0--5/3--------------|
G|------------3---3----------3/4-(4)------------------|
D|-5-5-5----5-----------------------------------------|
A|----------------------------------------------------|
E|----------------------------------------------------|


Men jeg skulle ønske jeg kunne høre deg le igjen 

e|----------------------------------------------------|
B|--------------6---5p3-----------0--5/3--------------|
G|------------3---3----------3/4-(4)------------------|
D|-5-5-5----5-----------------------------------------|
A|----------------------------------------------------|
E|----------------------------------------------------|


Men jeg skulle ønske jeg kunne høre deg le igjen 

e|----------------------------------------------------|
B|--------------6---5p3-----------0--5/3--------------|
G|------------3---3----------3/4-(4)------------------|
D|-5-5-5----5-----------------------------------------|
A|----------------------------------------------------|
E|----------------------------------------------------|

Men jeg skulle ønske jeg kunne høre deg le igjen 

e|---------------------------------------------------------------------|
B|-7-7-7-7-6-6-6-6-------------------7-7-7-7-6-6-6-6-------------------|
G|-6-6-6-6-5-5-5-5-6-6-6-6-5-5-5-5---6-6-6-6-5-5-5-5-6-6-6-6-5-5-5-5---|
D|-----------------6-6-6-6-5-5-5-5-------------------6-6-6-6-5-5-5-5---|
A|---------------------------------------------------------------------|
E|---------------------------------------------------------------------|

Cm           
Jeg fryser i hodet 
G            Cm
Vil hjem til meg selv 
Cm
Det vakke no gøy ute 
G            Cm          G
Likevel 
Cm 
Du knuste en rute 
G            Cm
Jeg knuste en til 
Cm
Nå knuser alle 
G            Cm
De ruter de vil 


Cm D# F F <- Repeat until fade

Outro Solo:

e|---------8-------8---------------------------------------------------------|
B|-------8---11b13-------13-15-16-16b18=18r16-15-13------13------------------|
G|--8b10-------------------------------------------15b17----15-12-12b12.5r12-|
D|---------------------------------------------------------------------------|
A|---------------------------------------------------------------------------|
E|---------------------------------------------------------------------------|

e|-----------------------------------------------------------x-17b18-18-16-15|
B|---------------------------------------------------------x-----------------|
G|---------------------15b17-15-12-----------------------x-------------------|
D|-15-15b17r15---------------------15b17-13-15-15b17-------------------------|
A|-------------15------------------------------------------------------------|
E|---------------------------------------------------------------------------|

e|-------15------------------------------------------------------------------|
B|-16-18---16-18p16----------------------------------------------------------|
G|------------------17-------------------------------------------------------|
D|---------------------------------------------------------------------------|
A|---------------------------------------------------------------------------|
E|---------------------------------------------------------------------------|

It continues like this over a C Minor Pentatonic Scale, 
so just improv for the rest of the song until the fade. 



Добавлено: 07.03.2016
Другие материалы по этой песне:
  • Аккорды и текст

Страница создана 07.03.2016
http://primanota.ru/aller-vrste/hekt-chords.htm
Привет, Гость.
Предлагаем пройти революционный курс по гитаре.
Подарок от PrimaNota.Ru, забирай!