PrimaNota.ru - самый крупный в мире бесплатный архив песенных текстов, аккордов, табулатур и нот


The Aller Værste - For Dem Betyr Det Lite - таба, видео

Регистрация Запомнить меня
Войти через:  Facebook Google Twitter Vk Yandex Mail.ru

The Aller Værste - For Dem Betyr Det Lite - таба, видео

Печатать
Просмотров: 75
Intro tabs:

(Guitar)
e|---------------------------------------------------------------|
B|---------------------------------------------------------------|
G|---------------------------------------------------------------|
D|-5---5---4-7-5-5-5---4-7-5-5-5---4-7-5-5-5---4-7-5-------------|
A|-------5-----------5-----------5-----------5-------------------|
E|---------------------------------------------------------------|

(Organ)
e|---------------------------------------------------------------|
B|---------------------4-5------------------------4-5------------|
G|-----7-----4-7-5---7------------7-----4-7-5---7----------------|
D|-7-5-----5------------------7-5-----5--------------------------|
A|---------------------------------------------------------------|
E|---------------------------------------------------------------|

Chords:

G     G     G     G

A  D  G  C  B  E x2

A            D           G            C        B        E
Krigsromaner er for noen alt som interesserer
A            D           G            C        B        E
De pugger alle navn på berømte offiserer

e|-------------|
B|-------------|
G|-------------|
D|-------------| x 6 during the next verse
A|--8-7-5-7----|
E|-------------|

N/A
Millitære drømmen metter
Ser en skygge løper etter
Kutter ned en fiende
    C        A
Med sine bajonetter

F             G
Se der kommer guttene
C
Som de ler
C
For dem betyr det lite
C         D            G
For oss betyr det litt mer

e|---------------------------------------------|
B|---------------------------------------------|
G|---------------------------------------------|
D|---------------------------------------------|
A|-----------5-3-2----------------5-3-2--------|
E|-3-3-3-3-5------------3-3-3-3-5--------------|

e|---------------------------------------------|
B|---------------------------------------------|
G|---------------------------------------------|
D|----------------------5-5-5-5-4-2-4-5--------|
A|-----------5-3-2-----------------------------|
E|-3-3-3-3-5-----------------------------------|

A            D           G            C        B        E
De små ser på de store med grenseløs beundring
A            D           G            C        B        E
Generalens ordre går over alle grenser til nu

e|-------------|
B|-------------|
G|-------------|
D|-------------| x 6 during the next verse
A|--8-7-5-7----|
E|-------------|

N/A
Kaller seg for overmenn og
Dreper dem de ikke kjenner
Alle står dem klare til å
C          A
Knuse dine tenner

F             G
Se der kommer guttene
C
Som de ler
C
For dem betyr det lite
C         D            G
For oss betyr det litt mer


e|---------------------------------------------|
B|---------------------------------------------|
G|---------------------------------------------|
D|---------------------------------------------|
A|-----------5-3-2----------------5-3-2--------|
E|-3-3-3-3-5------------3-3-3-3-5--------------|

e|---------------------------------------------|
B|---------------------------------------------|
G|---------------------------------------------|
D|----------------------5-5-5-5-4-2-4-5--------|
A|-----------5-3-2-----------------------------|
E|-3-3-3-3-5-----------------------------------|

A            D           G            C        B        E
Så er det herrene som sender direktiver
A            D           G            C        B        E
De stresser rundt i verden med bunker med papirer

e|-------------|
B|-------------|
G|-------------|
D|-------------| x 6 during the next verse
A|--8-7-5-7----|
E|-------------|

N/A
Holder seg blant sine venner
Kaller seg for gentlemen og
Skribler på papirene
    C           A
Med sine flotte penner

F         G
Om verden brenner
C
For dem er det fred
C
For dem betyr det lite
C       D             G
For oss betyr det litt mer

G
Litt mer!

Outro:
e|---------------------------------------------|
B|---------------------------------------------|
G|---------------------------------------------|
D|---------------------------------------------|
A|-----------5-3-2----------------5-3-2--------|
E|-3-3-3-3-5------------3-3-3-3-5--------------|

e|---------------------------------------------|
B|---------------------------------------------|
G|---------------------------------------------|
D|----------------------5-5-5-5-4-2-4-5--------|
A|-----------5-3-2-----------------------------|
E|-3-3-3-3-5-----------------------------------|
Добавлено: 07.03.2016
Другие материалы по этой песне:
  • Аккорды и текст

Страница создана 07.03.2016
http://primanota.ru/aller-vrste/for-dem-betyr-det-lite-chords.htm
Привет, Гость.
Предлагаем пройти революционный курс по гитаре.
Подарок от PrimaNota.Ru, забирай!