PrimaNota.ru - самый крупный в мире бесплатный архив песенных текстов, аккордов, табулатур и нот


The Aller Værste - Du Sklei Meg Så Nær Inn På Livet - таба, видео

Регистрация Запомнить меня
Войти через:  Facebook Google Twitter Vk Yandex Mail.ru

The Aller Værste - Du Sklei Meg Så Nær Inn På Livet - таба, видео

Печатать
Просмотров: 108
Intro Tab:

e|------------------------------------------------------------|
B|-----7------7-----------------------------------------------|
G|---7-----10---10-7------------------------------------------|
D|-9-----------------9---9-12-9------------7-8-9--------------|
A|------------------------------11-10---10--------------------|
E|------------------------------------------------------------|

e|---7--------------------------------------------------------|
B|-7---7--------7---------------------------------------------|
G|-------7---10---10-7-----------------------------7----------|
D|---------------------9---9-12-9------------7-8-9------------|
A|--------------------------------11-10---10------------------|
E|------------------------------------------------------------|


Intro:
Bm  E  G  (G G# A A#) x2


Bm                       E
Jeg kom meg inn på Disken
         G                    (G G# A A#)
hvor det var en jævla trengsel
Bm                 E
hvor Mini-Travolta 
         G                    (G F# F E)
vrikka hofter i et fengsel
D                          E
Ei disko-danserinne skulle lære meg å fly
 G                   A
men før vi kom så langt måtte jeg ut og spy

Bm  E  G  (G G# A A#)

Bm                   E 
Jeg traff noen venner
         G                    (G G# A A#)
og vi ramla på fylla
Bm                   E
Vi priste oss sjøl
         G                    (G F# F E)
ved vårt alter nedi gata
D                          E
Vi ga faen i purken, vi ga faen i resten
 G                   A
Vi løp ned Nygårdsgata som om vi var i Ville Vesten

Bm  E  G  (G G# A A#)

Bm                   E 
Freddi skulle bade
         G                    (G G# A A#)
så han slang seg i Lunggårdsvannet
Bm                   E
Sjøl dro jeg hjem
         G                    (G F# F E)
og slang huet mitt i spannet
D                          E
Babyfjes og Christer sovna der de sto
 G                   A
mens Lasse Lasse Liten dro hjem og gikk til ro

Bm  E  G  (G G# A A#)

Solo: 
Bm                   E 
G                    (G G# A A#)
Bm                   E
G                    (G F# F E)         x4

C  A  G F# x2

Bm                   E 
Du sklei meg så nær innpå livet
         G                    (G G# A A#)
jeg kan ikke sove deg bort med en gang
Bm                   E
Du sklei meg så nær innpå livet
         G                    (G F# F E)
jeg kan ikke sove deg bort med en gang
D                          E
Jeg har rusla rundt hadde ingen sted å gå
 G                   A
og av og til er gata di for lang

Bm  E  G  (G G# A A#)
Bm
Добавлено: 03.01.2016
Другие материалы по этой песне:
  • Аккорды и текст

Страница создана 03.01.2016
http://primanota.ru/aller-vrste/du-sklei-meg-sa-nr-inn-pa-livet-chords.htm
Привет, Гость.
Предлагаем пройти революционный курс по гитаре.
Подарок от PrimaNota.Ru, забирай!