PrimaNota.ru - самый крупный в мире бесплатный архив песенных текстов, аккордов, табулатур и нот


The Aller Værste - Døgnflue - таба, видео

Регистрация Запомнить меня
Войти через:  Facebook Google Twitter Vk Yandex Mail.ru

The Aller Værste - Døgnflue - таба, видео

Печатать
Просмотров: 70
-----------------------------------------------------------------
 Døgnflue - The Aller Værste!
----------------------------------------------------------------- 

e|----------------------------------------------|
B|-/10-8---8-8/10-8---8-8/10-8---8-7-7----------|
G|-------9----------9----------9----------------| x2
D|----------------------------------------------|
A|----------------------------------------------|
E|----------------------------------------------|

e|-----------------------------|
B|-----------------------------|
G|-9-7---------9-7-------------|
D|-----10-9--------10-9--------|
A|-----------------------------|
E|-----------------------------|

Em                 D
Du synes nye tider er i ending

e|-----------------------------|
B|-----------------------------|
G|-9-7---------9-7-------------|
D|-----10-9--------10-9--------|
A|-----------------------------|
E|-----------------------------|

Em                    D
Jeg trues med å bli en overlending

e|-----------------------------|
B|-----------------------------|
G|-9-7---------9-7-------------|
D|-----10-9--------10-9--------|
A|-----------------------------|
E|-----------------------------|

Am                  Em
Får ikke snøring på systemet
G                   D
Men jeg skjønner problemet

Em        D          C           D
Mytene forteller meg hva jeg bør like
Em        D          C           D
I døgnfluenes tusenårsrike
Em
Skulle vært playboy med egen bil

e|-----------------------------|
B|-----------------------------|
G|-9-7---------9-7-------------|
D|-----10-9--------10-9--------|
A|-----------------------------|
E|-----------------------------|

Em                      D
Kjører rundt i byen med selvsikkert smil

e|-----------------------------|
B|-----------------------------|
G|-9-7---------9-7-------------|
D|-----10-9--------10-9--------|
A|-----------------------------|
E|-----------------------------|

Am               Em
Sjekker opp alle mannekengene
G                D
Elsker i alle vannsengene

Em        D          C           D
Gir vekslepengene til de trengende
Em        D          C           D         Em
Lionsklubb og røde fjær

e|---------------------------------------------------------------|
B|-8--7-8-10--8-7-8--7---7-7-------8--7-8-10--8-7-8--7---7-7-----|
G|---------------------9-----9-7-----------------------9-----9-7-|
D|---------------------------------------------------------------|
A|---------------------------------------------------------------|
E|---------------------------------------------------------------|

e|---------------------------------------------------------------|
B|-8--7-8-10--8-7-8--7---7-7-------------------------------------|
G|---------------------9-----9-7----9-7--------9-7---------------|
D|--------------------------------------10-7-------10-7----------|
A|---------------------------------------------------------------|
E|---------------------------------------------------------------|

Em                    D
Den nye buksen koster hundre kroner mer

e|-----------------------------|
B|-----------------------------|
G|-9-7---------9-7-------------|
D|-----10-9--------10-9--------|
A|-----------------------------|
E|-----------------------------|

Em                    D
Utstillingsdukken ser på deg og ler

e|-----------------------------|
B|-----------------------------|
G|-9-7---------9-7-------------|
D|-----10-9--------10-9--------|
A|-----------------------------|
E|-----------------------------|

Am                    Em
Men jeg driter i alle imitasjoner
G                     D
Og går og ser på mine demonstrasjoner

Em        D          C           D
Orker ikke lenger bite på snøret
Em        D          C           D
Foretrekker å gå på kjøret

Em
Jeg begynner å bli vant til det

e|-----------------------------|
B|-----------------------------|
G|-9-7---------9-7-------------|
D|-----10-9--------10-9--------|
A|-----------------------------|
E|-----------------------------|

Em                D
All slags bøff er blant idéer

Am             Em
I nøden spiser fanden fluer
G                     D
Leser ikke oppe på de fine menyer

Em        D          C           D
Så jeg balanserer på en stram tynn vaier
Em        D          C           D        Em
Balanserer fra bayer til bayer


e|---------------------------------------------------------------|
B|-8--7-8-10--8-7-8--7---7-7-------8--7-8-10--8-7-8--7---7-7-----|
G|---------------------9-----9-7-----------------------9-----9-7-|
D|---------------------------------------------------------------|
A|---------------------------------------------------------------|
E|---------------------------------------------------------------|

e|---------------------------------------------------------------|
B|-8--7-8-10--8-7-8--7---7-7--------------------------10/---------|
G|---------------------9-----9-7----9-7--------9-7---------------|
D|--------------------------------------10-7-------10------------|
A|---------------------------------------------------------------|
E|---------------------------------------------------------------|
Добавлено: 07.03.2016
Другие материалы по этой песне:
  • Аккорды и текст

Страница создана 07.03.2016
http://primanota.ru/aller-vrste/dgnflue-chords.htm
Привет, Гость.
Предлагаем пройти революционный курс по гитаре.
Подарок от PrimaNota.Ru, забирай!