PrimaNota.ru - самый крупный в мире бесплатный архив песенных текстов, аккордов, табулатур и нот


The Aller Værste - Bare Du Som Passer På - таба, видео

Регистрация Запомнить меня
Войти через:  Facebook Google Twitter Vk Yandex Mail.ru

The Aller Værste - Bare Du Som Passer På - таба, видео

Печатать
Просмотров: 97
Intro/Main Riff:
e|--------------------------------------------------------------------------|
B|-/12-/12--/12-/12--/12-/12-------------/10-/10--/10-/10--/10-/10----------|
G|-/11-/11--/11-/11--/11-/11----11-11----/11-/11--/11-/11--/11-/11---11-11--|
D|--------------------------------------------------------------------------|
A|--------------------------------------------------------------------------|
E|--------------------------------------------------------------------------|

e|--------------------------------------------------------------------------|
B|-/9-/9--/9-/9--/10-/10----------/12-/12--/12-/12--/12-/12-----------------|
G|-/9-/9--/9-/9--/9--/9---11-11---/11-/11--/11-/11--/11-/11-----------------|
D|--------------------------------------------------------------------------|
A|--------------------------------------------------------------------------|
E|--------------------------------------------------------------------------|


Bm
De tar fra deg livet ditt
Bm                    F#m
Du tør ikke ta det tilbake
E
De lar deg leike litt
A                       Bm 
Og stikker til deg søte saker

Bm
Du sniker på rødt
Bm                    F#m
Du tror du er blitt en fri mann
E
Du stjeler noe ekte
A                 Bm
Det er bare et alibi mann

E       Bm          F#    G    A 
Du er så søt når du skjuler hendene
E       Bm          F#    G    A 
Som et barn når du angir vennene
E       Bm          F#    G    A 
Som et lam når ulven flekker tenner

G
Det er bare du som passer på 
G                  F#
Det er bare du som passer på
      E 
Som passer på
      A
Som vokter
      Bm
På dæ sjæl

Bm
Alltid et kamera
Bm              F#m
Alltid et øye i nakken
E
Politimannen på taket
A                      Bm
Mens du virrer rundt på bakken

Bm
Du har steinen klar i hånda 
Bm                   F#m
Men står så aleine i speilet
E
Så slipper de våpenet 
A            Bm
uten å knuse speilet

E       Bm          F#    G    A 
Du er så søt når du skjuler hendene
E       Bm          F#    G    A 
Som et barn når du angir vennene
E       Bm          F#    G    A 
Som et lam når ulven flekker tenner

G
Det er bare du som passer på 
G                  F#
Det er bare du som passer på
      E 
Som passer på
      A
Som vokter
      Bm
På dæ sjæl

Bm
Det kjennes ikke godt når
Bm                    F#m
Jeg sov for tungt den natten
E
Da tiden løp ut
A                 Bm
Og du stupte ut i natten

Bm
Jeg fikk beskjeden i kveld
Bm                   F#m
En hilsen lest opp i dagsnytt
E
De leter over alt
A                           Bm
etter skuddene som falt ved daggry


E       Bm          F#    G    A 
Jeg var så søt når jeg skjulte hendene
E       Bm          F#    G    A 
Som et barn når jeg anga vennene
E       Bm          F#    G    A 
Som et lam da ulven flekket tenner

G
Det er bare du som passer på 
G                  F#
Det er bare du som passer på
      E 
Som passer på
      A
Som vokter
     
På dæ

G
Det er bare du som passer på 
G                  F#
Det er bare du som passer på
      E 
Som passer på
      A
Som vokter
     
På dæ

G
Det er bare du som passer på 
G                  F#
Det er bare du som passer på
      E 
Som passer på
      A
Som vokter
      Bm
På dæ sjel


Guitar part during "når jeg skjulte hendene":

e|-----6-----7---9--------------------------|
B|---7-----8--------------------------------|
G|-6-----7-----9----------------------------|
D|------------------------------------------|
A|------------------------------------------|
E|------------------------------------------|
Добавлено: 07.03.2016
Другие материалы по этой песне:
  • Аккорды и текст

Страница создана 07.03.2016
http://primanota.ru/aller-vrste/bare-du-som-passer-pa-chords.htm
Привет, Гость.
Предлагаем пройти революционный курс по гитаре.
Подарок от PrimaNota.Ru, забирай!