PrimaNota.ru - самый крупный в мире бесплатный архив песенных текстов, аккордов, табулатур и нот


Allele - Immune - текст песни, таба, видео

Регистрация Запомнить меня
Войти через:  Facebook Google Twitter Vk Yandex Mail.ru

Allele - Immune - текст песни, таба, видео

Печатать
Просмотров: 855

Intro/Verse ~

Guitar 1
                                                                             (Played 2 times)
D|---------------------------------------------------------------------------|
A|-----------6---6---6---6---6---6---6------------6---5---3------------------|
F|------------------------------------------------------------5---5---5---5--|
C|------3------------------------------------3-------------------------------|
G|----5---5----5---5---5---5---5---5-------3---3----3---3---3---3---3---3----|
C|---------------------------------------------------------------------------|

(Played 4 times)
D|----4h6--------------------------------------------------------------------|
A|-----------6---6---6---6---6---6---6------------6---5---3------------------|
F|------------------------------------------------------------5---5---5---5--|
C|-------------------------------------------3-------------------------------|
G|--------5----5---5---5---5---5---5-------3---3----3---3---3---3---3---3----|
C|---------------------------------------------------------------------------|

Pre-chorus

D|---------------------------------------------------------------------------|
A|---------------------------------------------------------------------------|
F|---------------------------------------------------------------------------|
C|-------5---5---5---5---5---5---5---5----4---4---4---4-----2---2---2---2----|
G|-----3---3---3---3---3---3---3---3----2---2---2---2-----0---0---0---0------|
C|---------------------------------------------------------------------------|
    PM * * * * * * * * * * * * * * * * * * * * * * * *

Chorus

D|---------------------------------------------------------------------------|
A|---------------------------------------------------------------------------|
F|---------------------------------------------------------------------------|
C|--0~------0-0-0-----3~-------3-3-3-----5~-----5-5-5-------8-------7--------|
G|--0~------0-0-0-----3~-------3-3-3-----5~-----5-5-5-------8-------7--------|
C|--0~------0-0-0-----3~-------3-3-3-----5~-----5-5-5-------8-------7--------|

Solo
                (12's, not 1's and 2's)
D|---------------------------------------------------------------------------|
A|----/12~-----------121212-------------------------------------15-------13--|
F|-------------------------------11---12----14\-----9------/14------14-------|
C|---------------------------------------------------------------------------|
G|---------------------------------------------------------------------------|
C|---------------------------------------------------------------------------|

D|---------------------------------------------------------------------------|
A|--------12-----------------------------------------------------------------|
F|----14------14-14-14-----------------9-------------------------------------|
C|-------------------------12-10-9-10-----12-10-9-9-9-10b--9-10--7-----------|
G|---------------------------------------------------------------------------|
C|---------------------------------------------------------------------------|


Chorus

D|---------------------------------------------------------------------------|
A|---------------------------------------------------------------------------|
F|---------------------------------------------------------------------------|
C|--0~------0-0-0-----3~-------3-3-3-----5~-----5-5-5-------8-------7--------|
G|--0~------0-0-0-----3~-------3-3-3-----5~-----5-5-5-------8-------7--------|
C|--0~------0-0-0-----3~-------3-3-3-----5~-----5-5-5-------8-------7--------|


Outro


D|---------------------------------------------------------------------------|
A|---------------------------------------------------------------------------|
F|---------------------------------------------------------------------------|
C|----0------------------0------------------0----------------0---------------|
G|----0------------------0------------------0----------------0---------------|
C|----0------------------0------------------0----------------0---------------|

Well there it is, figured i'd try to do some Allele stuff since no one else has.  I am 
figure out the second guitar and put it in later but e-mail me if you have any 
or comments.
Добавлено: 29.02.2012
Другие материалы по этой песне:

Страница создана 29.02.2012
http://primanota.ru/allele/immune-chords.htm
Привет, Гость.
Предлагаем пройти революционный курс по гитаре.
Подарок от PrimaNota.Ru, забирай!