PrimaNota.ru - самый крупный в мире бесплатный архив песенных текстов, аккордов, табулатур и нот


Allele - Cloaer To Habit - бас-таба, видео

Регистрация Запомнить меня
Войти через:  Facebook Google Twitter Vk Yandex Mail.ru

Allele - Cloaer To Habit - бас-таба, видео

Печатать
Просмотров: 184
from the Allele website forums (www.allelemusic.com)

Verse - all the same except 4th meas. of first verse
|-----------------------------------------------------------------|
|-----------------------------------------------------------------|
|-5-5-5-5-5-5-5-5-5-5-5-5-5-5-5-5-1-1-1-1-1-1-0-0-0-0-0-0-0-0-0-0-|
|-----------------------------------------------------------------|

|-----------------------------------------------------------------|
|-----------------------------------------------------------------|
|-----------------------------------------------------------------|
|-3-3-3-3-3-3-3-3-3-3-3-3-3-3-3-3-2-2-2-2-2-2-5-5-5-5-5-5-5-5-5-5-|

4th meas. of first verse
|-------------------------------------------------------------------|
|-------------------------------------------------------------------|
|-------------------------------------------------------------------|
|-3-3-3-3-3-3-3-3-3-3-3-3-3-3-3-3-2-2-2--------2-2-2-5--------5-5-5-|

Chorus
|-----------------------------------------------------------|
|-----------------------------------------------------------|
|-----------------------------------------------------------|
|-0----0----7----7----7--7----(7__8)----8----3----3----3--3-|

Bridge part 1
|-------------------------------------------------------------|
|-------------------------------------------------------------|
|-------------------------------------------------------------|
|-0----0----0----0----0--0----8----8----10----10----7--7----7-|

Bridge part 2
|----------------------------------------------------------------|
|-7---7----------------------------------------------------------|
|-5---5----------------------------------------------------------|
|----------7----7----7--7----3----3----1--0----0----0----0--1--0-|

End
|-----------------------------------------------------------|
|-----------------------------------------------------------|
|-----------------------------------------------------------|
|-0---0---0---1---0---0---3---0---0---1---0---0---0---1---3-|
Добавлено: 14.07.2012
Вам также может быть интересно:
Другие материалы по этой песне:
  • Аккорды и текст

Страница создана 14.07.2012
http://primanota.ru/allele/cloaer-to-habit-chords.htm
Привет, Гость.
Предлагаем пройти революционный курс по гитаре.
Подарок от PrimaNota.Ru, забирай!