PrimaNota.ru - самый крупный в мире бесплатный архив песенных текстов, аккордов, табулатур и нот


Allay The Sea - Descent - таба, видео

Регистрация Запомнить меня
Войти через:  Facebook Google Twitter Vk Yandex Mail.ru

Allay The Sea - Descent - таба, видео

Печатать
Просмотров: 107
Band: Allay The Sea
Song: Descent
Album: Descent

Tuning: Drop A [A,E,A,D,F#,B]


INTRO x4
[BOTH GUITARS]

B |------------------------------------------------------------|
F#|------------------------------------------------------------|
D |------------------------------------------------------------|
A |------------------------------------------------------------|
E |-0~-0~-0000-0~0~-0~-0~-000-000-0~0~-0000-0~0~-0~-0~-0---0---|
A |-1~-1~-1111-1~1~-1~-1~-111-111-1~1~-1111-1~1~-1~-1~-1---1---|
PM  .  .  .... . .  .  .  ... ... . .  .... . .  .  .  .   .


INTRO (slowed down) x4
[BOTH GUITARS]

B |------------------------------------------------------------|
F#|------------------------------------------------------------|
D |------------------------------------------------------------|
A |------------------------------------------------------------|
E |-0~-0~-0000-0~0~-0~-0~-000-000-0~0~-0000-0~0~-0~-0~---------|
A |-1~-1~-1111-1~1~-1~-1~-111-111-1~1~-1111-1~1~-1~-1~-0---0---|
PM  .  .  .... . .  .  .  ... ... . .  .... . .  .  .


VERSE x8
[GUITAR ONE]

B |---------------------------------------------------|
F#|---------------------------------------------------|
D |---------------------------------------------------|
A |-0~~~~~~~~~~~~~~~~~~~~~~~-3~~~~~~~~~~-5~~~~~~~~~~~-|
E |-0~~~~~~~~~~~~~~~~~~~~~~~-3~~~~~~~~~~-5~~~~~~~~~~~-|
A |-0~~~~~~~~~~~~~~~~~~~~~~~-3~~~~~~~~~~-5~~~~~~~~~~~-|

continued...

B |---------------------------------------------------|
F#|---------------------------------------------------|
D |---------------------------------------------------|
A |-0~~~~~~~~~~~~~~~~~~~~~~~-7~-7~-7777~-7~-7~-7777~--|
E |-0~~~~~~~~~~~~~~~~~~~~~~~-3~-3~-3333~-5~-5~-5555~--|
A |-0~~~~~~~~~~~~~~~~~~~~~~~-3~-3~-3333~-5~-5~-5555~--|


[GUITAR TWO]

B |---------------------------------------------------|
F#|---------------------------------------------------|
D |------------------------------------------2h3p2----|
A |---------------3-2h3p2------------------3-------3--|
E |-3h5p3-----3h5---------3--3h5p3-----3h5------------|
A |-------0-0----------------------0-0----------------|


CHORUS x4
[GUITAR ONE]

B |-------------------------------------------------------------------|
F#|-------------------------------------------------------------------|
D |-------------------------------------------------------------------|
A |-8888888888888888-10101010101010-3333333333333333-5555555555555555-|
E |-8888888888888888-10101010101010-3333333333333333-5555555555555555-|
A |-8888888888888888-10101010101010-3333333333333333-5555555555555555-|

continued...

B |-------------------------------------------------------------------|
F#|-------------------------------------------------------------------|
D |-------------------------------------------------------------------|
A |-8888888888888888-10101010101010-----------------------------------|
E |-8888888888888888-10101010101010-0000-0-0-000-000-0000-0-0-000-000-|
A |-8888888888888888-10101010101010-0000-0-0-000-000-0000-0-0-000-000-|
PM                                  .... . . ... ... .... . . ... ...


[GUITAR TWO]

B |-|-tap-|----------|-tap-|--------|-tap-|----------|-tap-|------|tap|
F#|-20-8h10-[x5]-----15-8h10-[x5]---17-8h10-[x5]-----20-8h10-[x4]--22-|
D |-------------------------------------------------------------------|
A |-------------------------------------------------------------------|
E |-------------------------------------------------------------------|
A |-------------------------------------------------------------------|

continued...

B |-|-tap-|----------|-tap-|------------------------------------------|
F#|-20-8h10-[x5]-----15-8h10-[x5]-------------------------------------|
D |-------------------------------------------------------------------|
A |-------------------------------------------------------------------|
E |---------------------------------0000-0-0-000-000-0000-0-0-000-000-|
A |---------------------------------0000-0-0-000-000-0000-0-0-000-000-|
PM                                  .... . . ... ... .... . . ... ...


VERSE 2 x8
[GUITAR ONE]

B |---------------------------------------------|
F#|---------------------------------------------|
D |---------------------------------------------|
A |----------------------------------10---------|
E |-1p0-00-0-00-8-5-3h5p3---------------8-7h8p7-|
A |-1p0-00-0-00-----------88-88-8-88------------|


[GUITAR TWO]

B |---------------------------------------------|
F#|---------------------------------------------|
D |---------------------------------------------|
A |-------------7--------------------10---------|
E |-1p0-00-0-00---8-7h8p7---------------8-7h8p7-|
A |-1p0-00-0-00-----------88-88-8-88------------|


BRIDGE x4
[GUITAR ONE]

B |-------------------------------------------------------|
F#|-------------------------------------------------------|
D |-------------------------------------------------------|
A |-0~~~~~~~~~~~-0~~~~~~~~~~~~-8~~~~~~~~~~-10~~~~~-3~~~~~-|
E |-0~~~~~~~~~~~-0~~~~~~~~~~~~-8~~~~~~~~~~-10~~~~~-3~~~~~-|
A |-0~~~~~~~~~~~-0~~~~~~~~~~~~-8~~~~~~~~~~-10~~~~~-3~~~~~-|


[GUITAR TWO] x8

Hold this as a chord shape.

B |-------------13~~~~~~~~~~-|
F#|-------11~~~~~~~11~~~~11~-|
D |----14~~~~14~~~~~~~14~~~~-|
A |-12~~~~~~~~~~~~~~~~~~~~~~-|
E |--------------------------|
A |--------------------------|


PRE-BREAKDOWN
[GUITAR ONE]

B |-------------------------------------------------|
F#|----------------------------------------------5~-|
D |----------------------------------------------8~-|
A |-------------------------------------------------|
E |-0--0--0000-0-0----------------------------------|
A |-1--1--1111-1-1----------------------------------|


BREAKDOWN x4
[BOTH GUITARS]

B |------------------------------------------------------------|
F#|------------------------------------------------------------|
D |------------------------------------------------------------|
A |------------------------------------------------------------|
E |-0~-0~-0000-0~0~-0~-0~-000-000-0~0~-0000-0~0~-0~-0~-0---0---|
A |-1~-1~-1111-1~1~-1~-1~-111-111-1~1~-1111-1~1~-1~-1~-1---1---|
PM  .  .  .... . .  .  .  ... ... . .  .... . .  .  .  .   .


BREAKDOWN PART 2 x2
[BOTH GUITARS]

B |-----------------------------------------|
F#|-----------------------------------------|
D |-----------------------------------------|
A |-0---------------------------------------|
E |-0--------00-00-00----00-00-00-----------|
A |-0--------00-00-00----00-00-00----0--0---|
PM  .        .. .. ..    .. .. ..


BREAKDOWN PART 3 x2
[BOTH GUITARS]

B |-----------------------------------------|
F#|-----------------------------------------|
D |-----------------------------------------|
A |-0---------------------------------------|
E |-0--------00-00-00----00-00-00----0--0---|
A |-1--------11-11-11----11-11-11----1--1---|
PM  .        .. .. ..    .. .. ..    .  .


PRE-OUTRO
[GUITAR ONE]

B |--------------------------------------------|
F#|--------------------------------------------|
D |--------------------------------------------|
A |-0~~~~~~~~~~~~~~~~~~~~~~~~~~~~~~~~~~~~~~----|
E |-0~~~~~~~~~~~~~~~~~~~~~~~~~~~~~~~~~~~~~~-00-|
A |-0~~~~~~~~~~~~~~~~~~~~~~~~~~~~~~~~~~~~~~-00-|
PM                                          ..


OUTRO
[GUITAR ONE]

B |-------------------------------------------------|
F#|-------------------------------------------------|
D |---------------------------------10/121212\10\9~-|
A |-8888888888888888-10101010101010-x-xxxxxx-x-x----|
E |-8888888888888888-10101010101010-8-/101010\8-\7~-|
A |-8888888888888888-10101010101010-----------------|

continued...

B |------------------------------------------------|
F#|------------------------------------------------|
D |------------------------------------------------|
A |------------------------------------------------|
E |-000-00----000-----3h5--000-00----000-----3h5---|
A |-000-00----000-3h5------000-00----000-3h5-------|
PM  ... ..    ...          ... ..    ...


[GUITAR TWO]

B |-15~~~~~~~~~~~~~~-15~~~~~~~~~~~~~~--------------|
F#|-----11~~~~~~~~~~-----11~~~~~~~~~~-----11~------|
D |--------14~~~~~~~--------14~~~~~~~-14~----------|
A |------------15~~~------------15~~~--------------|
E |------------------------------------------------|
A |------------------------------------------------|

B |------------------------------------------------|
F#|-------11~~~~~~~~~-------11~~~~~~~~~-11---------|
D |----14~~~~~~~~~~~~----14~~~~~~~~~~~~----14------|
A |-12~~~~~~~~~~~~~~~-12~~~~~~~~~~~~~~~-------15~~-|
E |------------------------------------------------|
A |------------------------------------------------|


FINISH
[GUITAR ONE]

B |---------------------------|
F#|---------------------------|
D |---------------------------|
A |-8~~~~~~~~~~~~~~~~~~~~~~~~-|
E |-8~~~~~~~~~~~~~~~~~~~~~~~~-|
A |-8~~~~~~~~~~~~~~~~~~~~~~~~-|

[GUITAR TWO]

B |-15~~~~~~~~~~~~~~~~~~~~~~~-|
F#|---------------------------|
D |---------------------------|
A |---------------------------|
E |---------------------------|
A |---------------------------|
Добавлено: 10.06.2012
Другие материалы по этой песне:
  • Аккорды и текст

Страница создана 10.06.2012
http://primanota.ru/allay-the-sea/descent-chords.htm
Привет, Гость.
Предлагаем пройти революционный курс по гитаре.
Подарок от PrimaNota.Ru, забирай!