PrimaNota.ru - самый крупный в мире бесплатный архив песенных текстов, аккордов, табулатур и нот


Allan Taylor - Colour To The Moon - аккорды и текст, видео

Регистрация Запомнить меня
Войти через:  Facebook Google Twitter Vk Yandex Mail.ru

Allan Taylor - Colour To The Moon - аккорды и текст, видео

Печатать
Просмотров: 178
Colour To The Moon
Allan Taylor
---------------------------------------------------------------------------------------------------------------
                                          Artist - Allan Taylor
                                         ***********************
                                        Song - Colour To The Moon
                                       ***************************
                                       Album - Colour To The Moon  
                                      ****************************
                                          Tabbed By - Ayreon77
                                         **********************
---------------------------------------------------------------------------------------------------------------
Tuning = Standard


ok this is what I submitted this tab on as this version
https://www.youtube.com/watch?v=rDf9J1SwLTo 2nd fret.

But the original seems not too be in tune on the 2nd fret, seems like its more in tune 
with the capo on the 3rd fret, here is the original. 
https://www.youtube.com/watch?v=EFo2wvQEm_s&feature=youtu.be

CAPO 2nd Fret
***************

  Am                    F       G                   Am                    F       G
e|----------------h----|-------|------3------------|---------------------|-------|---------3------3---------|
B|---------0-----0-1---|--h--1-|-0------0----1---0-|---1-------1---1-----|--h--1-|---0----------------------|
G|-----2-------2-------|-0-2---|--0-------0--------|----2--------------2-|-0-2---|----0--------0----0---0---|
D|---2-------2-------2-|-----3-|----0----------2---|--2--2---2-------2---|-----3-|-----0-0---0--------0-----|
A|-0-------------0-----|-------|-------------------|-0----0--------------|-------|--2-----------------------|
E|-------0-------------|-0-----|-3-----------3---3-|-------------0-------|-0-----|-3-------------3--------3-|

  Dm                  C         G             C        G       F       
e|-----1-------1-----|-0-------|-------------|---0----|-------|-----------------h--|
B|-----------3-------|---1-----|-3-------3---|----1---|---3---|---1------------0-1-|
G|---2-----2-------2-|-------0-|-----0-----0-|-----0--|----0--|----2---------2-----|
D|-0-----0-------0---|-----2---|---0---------|------2-|-----0-|-----3------3-------|
A|-------------------|-3-------|-------------|--------|-------|--2-------3---------|
E|-------------------|---------|-3-----3-----|-3------|-3-----|-1------1-----------|

  G
e|------h----------0----------|-------------------|
B|-----1-3-----3------3-------|THEN---------------|
G|----------------------0---0-|---BACK------------|
D|---0-----2-----0--------0---|------TO-----------|
A|----------------------------|-------THE---------|
E|-3---3-----3-------3--------|---------BEGINNING-|


------------------------
Middle section
  Dm                       Am      G             G/C      G       F
e|----------0-----0-----0-|-0-----|-------------|---0----|-------|-----------------h--|
B|------8-------8-----8---|---1---|-3-------3---|----1---|---3---|---1------------0-1-|
G|----9-------9-----9-----|-----0-|-----0-----0-|-----0--|----0--|----2---------2-----|
D|-0------0---------------|-------|---0---------|------2-|-----0-|-----3------3-------|
A|------------------------|-0-----|-------------|--------|-------|--2-------3---------|
E|------------------------|-------|-3-----3-----|-3------|-3-----|-1------1-----------|

  G
e|------h----------0----------|-------------------|
B|-----1-3-----3------3-------|THEN---------------|
G|----------------------0---0-|---BACK------------|
D|---0-----2-----0--------0---|------TO-----------|
A|----------------------------|-------THE---------|
E|-3---3-----3-------3--------|---------BEGINNING-|


--------------------------------------
VERSE 1
******** 
Am                             F
You were just another sideshow
G      C                     Am  F G
  In a back street carnival.
Am                           F
I was walking the high wire
G     C                  Am  F G
  And trying not to fall.
Dm                  F       G
Just another way of getting through
C  G         F              G
Anyone would do, but it was you.


--------------------------------------
VERSE 2
********
Am                                 F
And you were just another sideshow
G                              Am  F  G
  And I was trying not to fall.

Am F C G    Am F G

Am                     F  G
Ah but you were tender
   C    G      Am    F  G
As soft summer wind.
Am                   F  G
Someone to remember
         C           Am  F  G
when the cold closes in.


--------------------------------------
CHORUS
*******
Dm                C      G
  You were colour to the moon.
         Am      G       F
you were flowers come to bloom
           G
with sweet perfume.
Am                    F  G
  And you were tender 
   C    G      Am    F  G
As soft summer wind.

C G

--------------------------------------
MIDDLE SECTION
***************
Dm Am G  C G F  G Am F G   Am F G C G


--------------------------------------
VERSE 3
********
Am                      F  G
I've seen the dark side
          G         C        Am     F  G
when I am trying to find the light.
Am               F    G
Seen the shadows fade away
       C     G       Am     F  G
on the wrong side of night.


--------------------------------------
CHORUS
*******
Dm             C      G
  Heard a song coming through
             C           F    Dm     G
And when I'm looking for you, I sing blue.


Am                         F  G
Too long on the dark side
C         C        Am     F  G
trying to find the light.


--------------------------------------
BREAK
******
Dm  C G  C G F  Dm G

Am                             F  G
You were just another sideshow 
          G      C      Am    F  G
And I was trying not to fall, 
G      C      Am   F  G
Trying not to fall.

C G Am  F G

Am  F G  C G

Am  F G

Am  F G  C G

Repeat and fade.



ENJOY.........





Добавлено: 18.10.2015
Другие материалы по этой песне:
  • Аккорды и текст

Страница создана 18.10.2015
http://primanota.ru/allan-taylor/colour-to-moon-chords.htm
Привет, Гость.
Предлагаем пройти революционный курс по гитаре.
Подарок от PrimaNota.Ru, забирай!