PrimaNota.ru - самый крупный в мире бесплатный архив песенных текстов, аккордов, табулатур и нот


Allah-las - Ferus Gallery - таба, видео

Регистрация Запомнить меня
Войти через:  Facebook Google Twitter Vk Yandex Mail.ru

Allah-las - Ferus Gallery - таба, видео

Печатать
Просмотров: 147
-------------------------------------------------------------------------------
                             Ferus Gallery - Allah Las
-------------------------------------------------------------------------------
Tabbed by: Andrew Lowrey

E-mail: andylowrey1986@googlemail.com

A great tune, mixed up with different rhythms and a simply guitar tune behind it

Tuning: Standard
over first riff, play the first chord for three beats, then slide from the C# to the Eb

Riff plays 4 times with just guitars, then drums and bass four times more (8 times overall)

   1     2     3     4     1     2     3     4 

   Bbminor -   -     C#    Eb    -     -     -
e|-6-----------------4-----6----------------------------------------------------|
B|-6-----------------6-----8----------------------------------------------------|
G|-6-----------------6-----8----------------------------------------------------|
D|-8-----------------6-----8----------------------------------------------------|
A|-8-----------------4-----6----------------------------------------------------|
E|-6----------------------------------------------------------------------------|

Main "Theme" played 8 times 
   1     2     3     4     1     2     3     4 

   Bbminor -   -        Eb    -     -     -
e|------ 6-----------6-----------6-----------6------------------------------------|
B|------ 6-----------6-----------8-----------8------------------------------------|
G|------ 6-----------6-----------8-----------8------------------------------------|
D|------ 8-----------8-----------8-----------8------------------------------------|
A|------ 8-----------8-----------6-----------6------------------------------------|
E|------ 6-----------6------------------------------------------------------------|

Riff 4 times, the keyboard comes in here to add a bit to the sound
   1     2     3     4     1     2     3     4 

   Bbminor -   -     C#    Eb    -     -     -
e|-6-----------------4-----6----------------------------------------------------|
B|-6-----------------6-----8----------------------------------------------------|
G|-6-----------------6-----8----------------------------------------------------|
D|-8-----------------6-----8----------------------------------------------------|
A|-8-----------------4-----6----------------------------------------------------|
E|-6----------------------------------------------------------------------------|

Main "Theme" played 4 times with guitar solo
   1     2     3     4     1     2     3     4 

   Bbminor -   -        Eb    -     -     -
e|------ 6-----------6-----------6-----------6------------------------------------|
B|------ 6-----------6-----------8-----------8------------------------------------|
G|------ 6-----------6-----------8-----------8------------------------------------|
D|------ 8-----------8-----------8-----------8------------------------------------|
A|------ 8-----------8-----------6-----------6------------------------------------|
E|------ 6-----------6------------------------------------------------------------|

Riff 4 times
   1     2     3     4     1     2     3     4 

   Bbminor -   -     C#    Eb    -     -     -
e|-6-----------------4-----6----------------------------------------------------|
B|-6-----------------6-----8----------------------------------------------------|
G|-6-----------------6-----8----------------------------------------------------|
D|-8-----------------6-----8----------------------------------------------------|
A|-8-----------------4-----6----------------------------------------------------|
E|-6----------------------------------------------------------------------------|

Main "Theme" played 4 times with second solo 
   1     2     3     4     1     2     3     4 

   Bbminor -   -        Eb    -     -     -
e|------ 6-----------6-----------6-----------6------------------------------------|
B|------ 6-----------6-----------8-----------8------------------------------------|
G|------ 6-----------6-----------8-----------8------------------------------------|
D|------ 8-----------8-----------8-----------8------------------------------------|
A|------ 8-----------8-----------6-----------6------------------------------------|
E|------ 6-----------6------------------------------------------------------------|

Main "Theme" played 8 times with all instruments
   1     2     3     4     1     2     3     4 

   Bbminor -   -        Eb    -     -     -
e|------ 6-----------6-----------6-----------6------------------------------------|
B|------ 6-----------6-----------8-----------8------------------------------------|
G|------ 6-----------6-----------8-----------8------------------------------------|
D|------ 8-----------8-----------8-----------8------------------------------------|
A|------ 8-----------8-----------6-----------6------------------------------------|
E|------ 6-----------6------------------------------------------------------------|

Riff 4 times
   1     2     3     4     1     2     3     4 

   Bbminor -   -     C#    Eb    -     -     -
e|-6-----------------4-----6----------------------------------------------------|
B|-6-----------------6-----8----------------------------------------------------|
G|-6-----------------6-----8----------------------------------------------------|
D|-8-----------------6-----8----------------------------------------------------|
A|-8-----------------4-----6----------------------------------------------------|
E|-6----------------------------------------------------------------------------|



************************************

| /   slide up
| \   slide down
| h   hammer-on
| p   pull-off
| ~   vibrato
| +   harmonic
| x   Mute note
| b   Bend
| pb  Pre-bend
| br  Bend release
| pbr Pre-bend release
| brb Bend release bend

************************************
Добавлено: 15.06.2015
Другие материалы по этой песне:
  • Аккорды и текст

Страница создана 15.06.2015
http://primanota.ru/allah-las/ferus-gallery-chords.htm
Привет, Гость.
Предлагаем пройти революционный курс по гитаре.
Подарок от PrimaNota.Ru, забирай!