PrimaNota.ru - самый крупный в мире бесплатный архив песенных текстов, аккордов, табулатур и нот


All - Until I Say So - текст песни, таба, видео

Регистрация Запомнить меня
Войти через:  Facebook Google Twitter Vk Yandex Mail.ru

All - Until I Say So - текст песни, таба, видео

Печатать
Просмотров: 55
Уроки эстрадного вокала в Санкт-Петербурге
-------------------------------------------------------------------------------
                             UNTIL I SAY SO - ALL
-------------------------------------------------------------------------------
Tabbed by: RUCUSBOY

ONE OF MY FAVORITE BANDS.  HOPE I GOT THIS CLOSE. also sounds good with Gb PLAYED OCTAVE HIGHER.

Tuning: Standard

INTRO/ SOLO
                                  |--STRUM---|
e|---------------------------------------------------------------------------|
B|----------7H9P7-----------------7--9--10--11-------------------------------|
G|---9-------------9--------------7--9--10--11-------------------------------|
D|------11-------------6--4H6P4----------------------------------------------|
A|---------------------------------------------------------------------------|
E|---------------------------------------------------------------------------|
 
                                  |-STRUM--|
e|---------------------------------------------------------------------------|
B|----------7H9P7-----------------7--9--9B-----------------------------------|
G|---9-------------9--------------7--9--9B-----------------------------------|
D|------11-------------6--4H6P4----------------------------------------------|
A|---------------------------------------------------------------------------|
E|---------------------------------------------------------------------------|

verse
      A   Bb  G   D
e|-----------------------|
B|-----------------------|
G|----------------7------|
D|----7---9---5---7------| x2
A|----7---9---5---5------|
E|----5---7---3----------|

      A   E   G   D
e|-----------------------|
B|-----------------------|
G|--------9-------7------| x2
D|----7---9---5---7------|
A|----7---7---5---5------|
E|----5-------3----------|

chorus
e|-------------------7---9---7---9---------------|
B|-------------------7---7---7---7---------------|
G|-------9-------7------------------7---9--------|
D|---7---9---4---7------------------7---9--------| X2
A|---7---7---4---5------------------5---7--------|
E|---5-------2-----------------------------------|


OTHER PART: "you only cross my mind..."

      A       Gb  E   D   Dm
e|----------------------------|
B|------------------------6---|
G|--------------------7---7---| X2  OR CAN PLAY OCTAVE UP (A A Gb E)
D|----7---7---4---2---7---7---|
A|----7---7---4---2---5---5---|
E|----5---4---2---0-----------|




| /  slide up
| \  slide down
| h  hammer-on
| p  pull-off
| ~  vibrato
| +  harmonic
| x  Mute note
===============================================================================
Добавлено: 31.12.2015
Вам также может быть интересно:
Другие материалы по этой песне:
  • Аккорды и текст

Страница создана 09.07.2012
http://primanota.ru/all/until-i-say-so-chords.htm
Привет, Гость.
Предлагаем пройти революционный курс по гитаре.
Подарок от PrimaNota.Ru, забирай!