PrimaNota.ru - самый крупный в мире бесплатный архив песенных текстов, аккордов, табулатур и нот


All - Teresa - текст песни, таба, видео

Регистрация Запомнить меня
Войти через:  Facebook Google Twitter Vk Yandex Mail.ru

All - Teresa - текст песни, таба, видео

Печатать
Просмотров: 195
-------------------------------------------------------------------------------
                             Teresa - ALL
-------------------------------------------------------------------------------
Tabbed by: Allroy1909
Email: 

Tuning: standard

"Teresa, do you want to listen to the ramones with me?" (Verse 1 & 2)
"Teresa, do you want to listen to what I have to say?" (Verse 3)

e|---------------------------------------------------------------------------|
B|---------------------------------------------------------------------------|
G|-------------------------------------7-7-7-7-7-7-7-7-7-7-7-----------------|
D|-------------------------------------7-7-7-7-7-7-7-7-7-7-7-----------------|
A|-7-7-7-7-7-7-7-7-7-7-7-7-7-7-7-7-7-7-5-5-5-5-5-5-5-5-5-5-5-----------------|
E|-5-5-5-5-5-5-5-5-5-5-5-5-5-5-5-5-5-5---------------------------------------|



"We'll get something to drink and maybe I'll come home with you" (Verse 1)
"I got nothin' to prove, but maybe I could be with you" (Verse 2)
"It's been a long ten years now of us not getting our way" (Verse 3)

e|---------------------------------------------------------------------------|
B|---------2-2-2-2-2-2-2-2-2-------------------------------------------------|
G|-7-7-7-7-2-2-2-2-2-2-2-2-2-6-6-6-6-6-6-6-6-6-6-6-7-7-7-7-7-7-7-7-7---------|
D|-7-7-7-7-4-4-4-4-4-4-4-4-4-7-7-7-7-7-7-7-7-7-7-7-7-7-7-7-7-7-7-7-7---------|
A|-5-5-5-5-4-4-4-4-4-4-4-4-4-7-7-7-7-7-7-7-7-7-7-7-5-5-5-5-5-5-5-5-5---------|
E|---------2-2-2-2-2-2-2-2-2-5-5-5-5-5-5-5-5-5-5-5---------------------------|



"Believe me, there's no telling what's wrong with me" (Verse 1)
"Believe me, I'm not the creep that I used to be" (Verse 2)
"Believe me, I'm not tryin' to get over on you" (Verse 3)

e|---------------------------------------------------------------------------|
B|---------7-----------7-----------------------------------------------------|
G|---7----------7--------7-----------9-9-9-9-9-9-9-9-9-9-9-------------------|
D|-----9----------9---------9--------9-9-9-9-9-9-9-9-9-9-9-------------------|
A|-------9----------9----------------7-7-7-7-7-7-7-7-7-7-7-------------------|
E|-7-------------------------------------------------------------------------|



"Teresa, I know you're still in love with me" (Verse 1 & 2)
"Teresa, I know you love me you used to do" (Verse 3)

e|---------------------------------------------------------------------------|
B|-7-7---7-7-7-7-7-7-7-7-7-7-7-9-9-9-9-9-9-9-9-9-9-9-------------------------|
G|-7-7---7-7-7-7-7-7-7-7-7-7-7-9-9-9-9-9-9-9-9-9-9-9-------------------------|
D|-9-9-x-7-7-7-7-7-7-7-7-7-7-7-9-9-9-9-9-9-9-9-9-9-9-------------------------|
A|-9-9-x-5-5-5-5-5-5-5-5-5-5-5-7-7-7-7-7-7-7-7-7-7-7-------------------------|
E|-7-7-x---------------------------------------------------------------------|



"Teresa - You're almost thrty and you can't stay in the music business forever...

e|---------------------------------------------------------------------------|
B|----------7--7--7--7--7--7--7--7--7--7--7--7--7--7--7--7--7--7--7----------|
G|-10-10-10-7--7--7--7--7--7--7--7--7--7--7--7--7--7--7--7--7--7--7-6-6-6-6--|
D|-10-10-10-7--7--7--7--7--7--7--7--7--7--7--7--7--7--7--7--7--7--7-7-7-7-7--|
A|--8--8--8-5--5--5--5--5--5--5--5--5--5--5--5--5--5--5--5--5--5--5-7-7-7-7--|
E|------------------------------------------------------------------5-5-5-5--|



"...I'm in no hurry but you can't hold these stupid grudges forever" (Interlude)

e|---------------------------------------------------------------------------|
B|-7--7--7--7--7--7--7--7--7--7--7--7--7--7--7--7--7--7--7-7-7-7-7-----------|
G|-7--7--7--7--7--7--7--7--7--7--7--7--7--7--7--7--7--7--7-7-7-7-7-----------|
D|-7--7--7--7--7--7--7--7--7--7--7--7--7--7--7--7--7--7--9-9-9-9-9--scratch--|
A|-5--5--5--5--5--5--5--5--5--5--5--5--5--5--5--5--5--5--9-9-9-9-9-----------|
E|-------------------------------------------------------7-7-7-7-7-----------|



(Solo):

e|---------------------------------------------------------------------------|
B|----------------------------------------------------10--7--7b8r7-----------|
G|----------------------9-9b11r9--7-7--6-6----------7------------------------|
D|----------------7-/12--------------------9--7--7h9-------------------------|
A|-9--11--9\4--4-------------------------------------------------------------|
E|---------------------------------------------------------------------------|

e|--9--9--7--9--9b10r9--7----------5-----------------------------------------|
B|------------------------10--7------5----------------5----------------------|
G|-------------------------------------6--6b7r6--4--7---7--0-2-4-2-0---------|
D|---------------------------------------------------------------------------|
A|---------------------------------------------------------------------------|
E|---------------------------------------------------------------------------|


"Teresaaa..." (Outro)

e|---------------------------------------------------------------------------|
B|-------------------7-7-7-7-7-7-7-7-7-7-------------------------------------|
G|-6-6-6-6-6-6-6-6-6-7-7-7-7-7-7-7-7-7-7-------------------------------------|
D|-7-7-7-7-7-7-7-7-7-7-7-7-7-7-7-7-7-7-7--7---7---7--------------------------|
A|-7-7-7-7-7-7-7-7-7-5-5-5-5-5-5-5-5-5-5--7---7---7--------------------------|
E|-5-5-5-5-5-5-5-5-5----------------------5---5---5--------------------------|


************************************

| /   slide up
| \   slide down
| h   hammer-on
| p   pull-off
| ~   vibrato
| +   harmonic
| x   Mute note
| b   Bend
| pb  Pre-bend
| br  Bend release
| pbr Pre-bend release
| brb Bend release bend

************************************
Добавлено: 28.03.2012
Другие материалы по этой песне:
  • Аккорды и текст

Страница создана 28.03.2012
http://primanota.ru/all/teresa-chords.htm
Привет, Гость.
Предлагаем пройти революционный курс по гитаре.
Подарок от PrimaNota.Ru, забирай!