PrimaNota.ru - самый крупный в мире бесплатный архив песенных текстов, аккордов, табулатур и нот


All - Refrain - текст песни, таба, видео

Регистрация Запомнить меня
Войти через:  Facebook Google Twitter Vk Yandex Mail.ru

All - Refrain - текст песни, таба, видео

Печатать
Просмотров: 222
Song: Refrain
Band: ALL
Album: Mass Nerder

Intro:

E|------------------------------------------------------------------|
B|------------------------------------------------------------------|
G|------------------------------------------xx----xx----xx----xx----|
D|--88888888--66666666--44444444--33333333--66-6--66-6--77-7--77-7--|
A|--88888888--66666666--44444444--33333333--66-6--66-6--77-7--77-7--|
E|--66666666--44444444--22222222--11111111--44-4--44-4--55-5--55-5--|

E|--------------------|
B|--------------------|
G|-----6---10p6h10-8--|
D|--88---8-8--8-8--8--|
A|--------------------|
E|--------------------|

Verse:

E|-----------------------------------------|
B|--xxxxxxxxxxxx----------6----9----6h7p6--|
G|--666666666666-----6--------------6------|
D|--666666666666--88---88---88---88--------|
A|--444444444444---------------------------|
E|-----------------------------------------|

Chorus:

E|------------------------------------------|
B|------------------------------------------|
G|----------------------66666666------------|
D|--88888888--66666666--66666666--44444444--|
A|--88888888--66666666--44444444--44444444--|
E|--66666666--44444444------------22222222--|

E|---------------------------------------|
B|---------------------------------------|
G|---------------------------------------|
D|--88888888--66666666--4x4x4x4--777777--|
A|--88888888--66666666--4x4x4x4--777777--|
E|--66666666--44444444--2x2x2x2--555555--|

Verse:

E|-----------------------------------------|
B|--xxxxxxxxxxxx----------6----9----6h7p6--|
G|--666666666666-----6--------------6------|
D|--666666666666--88---88---88---88--------|
A|--444444444444---------------------------|
E|-----------------------------------------|

Chorus:

E|------------------------------------------|
B|------------------------------------------|
G|----------------------66666666------------|
D|--88888888--66666666--66666666--44444444--|
A|--88888888--66666666--44444444--44444444--|
E|--66666666--44444444------------22222222--|

E|--------------------------------------------|
B|--------------------------------------------|
G|----------------------66--------------------|
D|--88888888--66666666--66--66--444444444444--|
A|--88888888--66666666--44--66--444444444444--|
E|--66666666--44444444------44--222222222222--|

(Although I never...)
E|------------------------------------------|
B|------------------------------------------|
G|----------------------66666666------------|
D|--88888888--66666666--66666666--44444444--|
A|--88888888--66666666--44444444--44444444--|
E|--66666666--44444444------------22222222--|

E|---------------------------------------|
B|---------------------------------------|
G|---------------------------------------|
D|--88888888--66666666--4x4x4x4--777777--|
A|--88888888--66666666--4x4x4x4--777777--|
E|--66666666--44444444--2x2x2x2--555555--|

Bridge:

(I shouldn't have...)
E|----------------------------------------------------------|
B|----------------------------------------------------------|
G|--6666666666666666----------------------------------------|
D|--6666666666666666--88888888--66666666--44444444--44--66--|
A|--4444444444444444--88888888--66666666--44444444--44--66--|
E|--------------------66666666--44444444--22222222--22--44--|

(Why lie...)
E|------------------------------------------------------------------|
B|------------------------------------------------------------------|
G|------------------------------------------xx----xx----xx----xx----|
D|--88888888--66666666--44444444--33333333--66-6--66-6--77-7--77-7--|
A|--88888888--66666666--44444444--33333333--66-6--66-6--77-7--77-7--|
E|--66666666--44444444--22222222--11111111--44-4--44-4--55-5--55-5--|

E|--------------------|
B|--------------------|
G|-----6---10p6h10-8--|
D|--88---8-8--8-8--8--|
A|--------------------|
E|--------------------|

E|---------------(2x)-----------|
B|--xxxxxxxxxxxx----------------|
G|--666666666666--xxxxxxxxxxxx--|
D|--666666666666--888888888888--|
A|--444444444444--888888888888--|
E|----------------666666666666--|

During solo:

E|---------------(2x)-----------|
B|------------------------------|
G|--666666666666----------------|
D|--666666666666--888888888888--|
A|--444444444444--888888888888--|
E|----------------666666666666--|

Solo:

E|--99----1111----1313----99--------9-----9-------------------|
B|-----99------99------99----99-11b---11b---11b-11-9----------|
G|---------------------------------------------------11-10-8--|
D|------------------------------------------------------------|
A|------------------------------------------------------------|
E|------------------------------------------------------------|

E|--99----1111----1313----99--------9-----9--9--9--9--9---|
B|-----99------99------99----99-13b---13b---13b13b13b13b--|
G|--------------------------------------------------------|
D|--------------------------------------------------------|
A|--------------------------------------------------------|
E|--------------------------------------------------------|

Chorus:

E|------------------------------------------|
B|------------------------------------------|
G|----------------------66666666------------|
D|--88888888--66666666--66666666--44444444--|
A|--88888888--66666666--44444444--44444444--|
E|--66666666--44444444------------22222222--|

E|--------------------------------------------|
B|--------------------------------------------|
G|----------------------66--------------------|
D|--88888888--66666666--66--66--444444444444--|
A|--88888888--66666666--44--66--444444444444--|
E|--66666666--44444444------44--222222222222--|

(Although I never...)
E|------------------------------------------|
B|------------------------------------------|
G|----------------------66666666------------|
D|--88888888--66666666--66666666--44444444--|
A|--88888888--66666666--44444444--44444444--|
E|--66666666--44444444------------22222222--|

E|---------------------------------------|
B|---------------------------------------|
G|---------------------------------------|
D|--88888888--66666666--4x4x4x4--777777--|
A|--88888888--66666666--4x4x4x4--777777--|
E|--66666666--44444444--2x2x2x2--555555--|

Ending:

E|---------------------------------------------------------------------|
B|---------------------------------------------------------------------|
G|------------------------------------------xx----xx----xx----xx-------|
D|--88888888--66666666--44444444--33333333--66-6--66-6--77-7--77-7--8--|
A|--88888888--66666666--44444444--33333333--66-6--66-6--77-7--77-7--8--|
E|--66666666--44444444--22222222--11111111--44-4--44-4--55-5--55-5--6--|
Добавлено: 12.03.2012
Другие материалы по этой песне:
  • Аккорды и текст

Страница создана 12.03.2012
http://primanota.ru/all/refrain-chords.htm
Привет, Гость.
Предлагаем пройти революционный курс по гитаре.
Подарок от PrimaNota.Ru, забирай!