PrimaNota.ru - самый крупный в мире бесплатный архив песенных текстов, аккордов, табулатур и нот


All - Mary - текст песни, таба, видео

Регистрация Запомнить меня
Войти через:  Facebook Google Twitter Vk Yandex Mail.ru

All - Mary - текст песни, таба, видео

Печатать
Просмотров: 135
-------------------------------------------------------------------------------
                             Mary - All
-------------------------------------------------------------------------------
Tabbed by: Allroy1909
Email: crash_holly@web.de

Tuning: standard

I found this Song damn hard to tab, cause Stephen is an amazing guitar player 
and i'm not but this sounds right. You're welcome to send me improvement suggestions. 




e|---------------------------------------------------------------------------|
B|--------------5--4b5r4----------12--10--9--10--9---9\----------------------|
G|-----4b6r4----4-----------9-8-9--9----------9----9-------------------------|
D|--2--------2--2--------6--9---------------------------(2X)-1---1-----------|
A|--2--------------------------------------------------------2-4-2-let ring--|
E|--0------------------------------------------------------------------------|

"If you talk to Mary please don't look at me cause she's never seen me before"
"If you talk to Mary please don't mention me cause she's never seen me before
e|---------------------------------------------------------------------------|
B|------------------5-------------------------------12----------10---9-------|
G|------------------4--------------------------------9-----------9---9-------|
D|------------------2--------------------------------9-----------9-----------|
A|---------------------------------------------------------------------------|
E|---------------------------------------------------------------------------|

Don't call attention to the man outside of me Cause she can cut my head off
Just let me hide behind the smoke and the peasantries Cause I do my best work
e|---------------------------------------------------------------------------|
B|----------------------------7----------------------12----------------------|
G|----8-------------------------9---------------------9----------------------|
D|------6---------------------------------------------9----------------------|
A|--7----------------------7-------------------------------------------------|
E|---------------------------------------------------------------------------|

with the blinkin of her eye and I'm not supposed to be here and I'm too young
with mannequin brigade I just peek around the statues spitting art and foreign
e|---------------------------------------------------------------------------|
B|---------10------------9---------------------------------------------------|
G|----------9------------9---------------------------------------------------|
D|----------9------------------------7-7-----7---7---7-7---7---4-4-----4---4-|
A|-----------------------------------7-7-----7---7---7-7---7---4-4-----4---4-|
E|-----------------------------------5-5-5-5-5-5-5-5-5-5-5-5-5-2-2-2-2-2-2-2-|

to die. Seem she carries my confusion in the pocket of her jeans. I go
trade She looks a hole right through me to a shadow on the wall Till I'm sick
e|---------------------------------------------------------------------------|
B|------------------------------------2--------------------------------------|
G|-----------------------2----4--2----------------2------------------2-------|
D|-4---4-4---4---PM:--4-----4-------2----------------2------4-----4-----4----|
A|-4---4-4---4----------------------------2--4--2-------2--------------------|
E|-2-2-2-2-2-2-2-------------------------------------------------------------|

bouncing like a pinball in between extremes
of my surroundings while I'm not here at all
e|---------------------------------------------------------------------------|
B|-----------2---------------------------------------------------------------|
G|--4--2------------------2--------------------------------------------------|
D|--------4------------------2-----2----------7------------------------------|
A|----------------2--4--2-------2-------------5------------------------------|
E|--------------------------------------------5------------------------------|

I'm not surprised this happens all the time and my hand lights her cigarette
e|---------------------------------------------------------------------------|
B|-----------------------------12-------------------12-----------------------|
G|------------------------------9--------------------9-----------------------|
D|-----------------------------11--------------------9-----------------------|
A|------------------------------9--------------------------------------------|
E|---------------------------------------------------------------------------|

inside my mind. And she's never seen me before
e|--10------------------------------------------------------------------------|
B|-\10------------------------------------------------------------------------|
G|-\9------------------------------------------------------------------------|
D|-\9------------------------------------------------------------------------|
A|--------------------4-4-4-4-4-4-4-4-4-4-4-4--------------------------------|
E|--------------------2-2-2-2-2-2-2-2-2-2-2-2--------------------------------|


e|---------------------------------------------------10-10------/14--10------|
B|-----------------3-----3---------------------12-12------12-12---------12\--|
G|---------9\\-----4-----4-------4-----4--12-12------------------------------|
D|---------9\\-----3-----3-------4-----4-------------------------------------|
A|-7-7-7-7-----3-3-3-3-3-3-3-2-2-2-2-2-2-------------------------------------|
E|---------------------------------------------------------------------------|

Warhol monotone, robotic walk, we're all so smart we're so perceptive
But her mouth doesn't move, except to smile to polite to be receptive
She burns me with a glance. I look away I'm safety cool, I'm so deceptive
e|---------------------------------------------------10-10------/14--10------|
B|-----------------3-----3---------------------12-12------12-12---------12\--|
G|---------9\\-----4-----4-------4-----4--12-12------------------------------|
D|---------9\\-----3-----3-------4-----4-------------------------------------|
A|-7-7-7-7-----3-3-3-3-3-3-3-2-2-2-2-2-2-------------------------------------|
E|---------------------------------------------------------------------------|

         I'd give my right arm for a different situation
         Convince myself I see everybody watching me
         I set myself up for this stupid situation
e|---------------------------------------------------------------------------|
B|------------------12---------10\\------------------------------------------|
G|------------9--------11--11--11\\--------------9---11----------------------|
D|-----4-/------7-------------------(4X)----4-/---7----7---------------------|
A|-----4-/--9-----9-------------------------4-/-9---9----9--7-7-7-7-7-7-7-7--|
E|-2-2-2--------------------------------2-2-2---------------5-5-5-5-5-5-5-5--|

   "If you talk to Mary please don't look at me cause she's never seen me before"
e|---------------------------------------------------------------------------|
B|--------------------10-------------------------------5-----------3---2-----|
G|---------------------9-------------------------------2-----------2---2-----|
D|--7------------------7-------------------------------2-----------2---------|
A|--7------------------------------------------------------------------------|
E|--5------------------------------------------------------------------------|

    Don't call attention to the man outside of me Cause she can cut my head off
e|-------------------------------7-------------------------------------------|
B|----9-----------------------------10-------------------5-------------------|
G|-------6-----------------------------------------------2-------------------|
D|--7--------------------------7-------------------------2-------------------|
A|---------------------------------------------------------------------------|
E|---------------------------------------------------------------------------|

with the blinkin of her eye and I'm not supposed to be here and I'm too young
e|---------------------------------------------------------------------------|
B|---------3-------------2---------------------------------------------------|
G|---------2-------------2-------------7-7-----7---7-7-----7-----------------|
D|---------2---------------------------7-7-----7---7-7-----7-9-9-----9---9---|
A|-------------------------------------5-5-5-5-5-5-5-5-5-5-5-9-9-----9---9---|
E|-----------------------------------------------------------7-7-7-7-7-7-7-7-|

to die. Seem she carries my confusion in the pocket of her jeans. I go
e|---------------------------------------------------------------------------|
B|------------------------------------7--------------------------------------|
G|----------------------7---9--7------------------7------------------7-------|
D|---7-----7---7--PM:-9---9-------9------------------7------9-----9-----9----|
A|---7-----7---7-------------------------7--9--7--------7--------------------|
E|-9-9-9-9-9-9-9-------------------------------------------------------------|

bouncing like a pinball in between extremes
e|---------------------------------------------------------------------------|
B|----------7----------------------------------------------------------------|
G|--9--7----------------7-------------------7--------------------------------|
D|--------9----------------7-----7----------7--------------------------------|
A|--------------7--9--7-------7-------------5--------------------------------|
E|---------------------------------------------------------------------------|

I'm not surprised this happens all the time and my hand lights her cigarette
e|---------------------------------------------------------------------------|
B|------------------------------5-------------------5------------------------|
G|------------------------------2-------------------2------------------------|
D|------------------------------4-------------------0------------------------|
A|------------------------------2--------------------------------------------|
E|---------------------------------------------------------------------------|

inside my mind. And she's never seen me before
e|-7-------------------------------------------------------------------------|
B|-5-------------------------------------------------------------------------|
G|-6-------------------------------------------------------------------------|
D|-7-----------------4-4-4-4-4-4-4-4-4-4-4-4-4-------------------------------|
A|-------------------2-2-2-2-2-2-2-2-2-2-2-2-2-------------------------------|
E|---------------------------------------------------------------------------|

e|---------------------------------------------------------------------------|
B|--------------5--4b5r4----------12--10--9--10--9---9\----------------------|
G|-----4b6r4----4-----------9-8-9--9----------9----9-------------------------|
D|--2--------2--2--------6--9---------------------------(2X)-end on:--2------|
A|--2-----------------------------------------------------------------2------|
E|--0-----------------------------------------------------------------0------|



************************************

| /   slide up
| \   slide down
| h   hammer-on
| p   pull-off
| ~   vibrato
| +   harmonic
| x   Mute note
| b   Bend
| pb  Pre-bend
| br  Bend release
| pbr Pre-bend release
| brb Bend release bend

************************************
Добавлено: 13.06.2012
Другие материалы по этой песне:
  • Аккорды и текст

Страница создана 30.04.2012
http://primanota.ru/all/mary-chords.htm
Привет, Гость.
Предлагаем пройти революционный курс по гитаре.
Подарок от PrimaNota.Ru, забирай!