PrimaNota.ru - самый крупный в мире бесплатный архив песенных текстов, аккордов, табулатур и нот


All Tvvins - Darkest Ocean - бас-таба, видео

Регистрация Запомнить меня
Войти через:  Facebook Google Twitter Vk Yandex Mail.ru

All Tvvins - Darkest Ocean - бас-таба, видео

Печатать
Просмотров: 58
-------------------------------------------------------------------------------
                            Darkest Ocean - All Tvvins
-------------------------------------------------------------------------------
Tabbed by: Darkslider
E-mail: tombruggeman@outlook.com

Tuning: EADG (Standard tuning)


0:15
G|---------------------------------|
D|---------------------------------|
A|-7-7-5-5-------------------------| x2 
E|---------7-7-3-3-----3-3-2-3-5~--|

No bass until 0:46
G|---------------------------------|
D|---------------------------------|
A|---------2~------4~-4~-5~--------| 
E|-5~--2~------3~------------------|


G|---------------------------------|
D|---------------------------------|
A|---------2~------5~-5~-4~----12\-| 
E|-5~--2~------3~------------------|

G|---------------------------------|
D|---------------------------------|
A|-7-7-5-5-------------------------| x2 
E|---------7-7-3-3-----3-3-2-3-5~--|

[Chorus]

G|---------------------------------|
D|---------------------------------|
A|-7-7-5-5-------------------------| 
E|---------7~-3~-------3~-2~-5~----|
                                       
G|---------------------------------|
D|---------------------------------|
A|-7-7-5-5-------------------------| 
E|---------7~-3~-------3-3-2-3-5~--|


G|-----------------------------------|
D|-----------------------------------|
A|-7-7-5-5-----------------------17\-| 
E|---------7~-3~-------3~-2~-5~------|
                                        
G|---------------------------------|
D|---------------------------------|
A|-7-7-5-5-------------------------| 
E|---------7~-3~-------3-3-2-3-5~--|


[After chorus]

G|---------------------------------|
D|---------------------------------|
A|-7-7-5-5-------------------------| 
E|---------7~-3~-------3~-2~-5~----|
                                       
G|---------------------------------|
D|---------------------------------|
A|-7-7-5-5-------------------------| 
E|---------7~-3~-------3-3-2-3-5~--|

[Verse 2] 

G|---------------------------------|
D|---------------------------------|
A|----------2-2--------4-4-4-4-5-5-| 
E|-5-5--2-2-----3-3----------------|


G|---------------------------------|
D|---------------------------------|
A|----------2-2--------5-5-5-5-4-4-| 
E|-5-5--2-2-----3-3----------------|

"You take me out of..."
G|---------------------------------|
D|---------------------------------|
A|---------2~------4~-4~-5~--------| 
E|-5~--2~------3~------------------|


G|---------------------------------|
D|---------------------------------|
A|---------2~------5~-5~-4~----12\-| 
E|-5~--2~------3~------------------|

[Bridge]

G|---------------------------------|
D|------------------4/5-5-4-5------|
A|-7-7-5-5--------------------0~---| x2 
E|---------7-7-3~------------------|
[Chorus]

G|---------------------------------|
D|---------------------------------|
A|-7-7-5-5-------------------------| 
E|---------7~-3~-------3~-2~-5~----|
                                        
G|---------------------------------|
D|---------------------------------|
A|-7-7-5-5-------------------------| 
E|---------7~-3~-------3-3-2-3-5~--|


G|------------------------------------|
D|------------------------------------|
A|-7-7-5-5------------------------17\-| 
E|---------7~-3~-------3~-2~-5~-------|
                                        
G|---------------------------------|
D|---------------------------------|
A|-7-7-5-5-------------------------| 
E|---------7~-3~-------3-3-2-3-5~--|

[End with]

G|---------------------------------|
D|------------------4/5-5-4-5------|
A|-7-7-5-5--------------------0~---| x2 
E|---------7-7-3~------------------|


| /  slide up
| \  slide down
| h  hammer-on
| p  pull-off
| ~  vibrato
| +  harmonic
| x  Mute note
===============================================================================
Добавлено: 23.05.2016
Другие материалы по этой песне:
  • Аккорды и текст

Страница создана 23.05.2016
http://primanota.ru/all-tvvins/darkest-ocean-chords.htm
Привет, Гость.
Предлагаем пройти революционный курс по гитаре.
Подарок от PrimaNota.Ru, забирай!