PrimaNota.ru - самый крупный в мире бесплатный архив песенных текстов, аккордов, табулатур и нот


All-time Quarterback - Underwater - таба, видео

Регистрация Запомнить меня
Войти через:  Facebook Google Twitter Vk Yandex Mail.ru

All-time Quarterback - Underwater - таба, видео

Печатать
Просмотров: 149
Capo 5


e------------------------|
B------------------------|
G-4-4-6-6-2-2-0-0--------|   (4x)
D--0-0-0-0-0-0-0-0-------|
A------------------------|
E------------------------|

e------------------------|
B------------------------|
G------------------------|   (4x)
D-5555-7777-4444-2222----|
A------------------------|
E------------------------|

e------------------------|
B------------------------|
G-4-4-6-6-2-2-0-0--------|   (4x)
D--0-0-0-0-0-0-0-0-------|
A------------------------|
E------------------------|

e------------------------|
B------------------------|
G------------------------|   (4x)
D-5555-7777-4444-2222----|
A------------------------|
E------------------------|

e------------------------|
B------------------------|
G-4-4-6-6-2-2-0-0--------|   (4x)
D--0-0-0-0-0-0-0-0-------|
A------------------------|
E------------------------|

e------------------------|
B------------------------|
G-4-4-6-6-2-2-0-0--4-----|
D--0-0-0-0-0-0-0-0-0-----|
A------------------------|
E------------------------|
Добавлено: 11.06.2012
Другие материалы по этой песне:
  • Аккорды и текст

Страница создана 18.03.2012
http://primanota.ru/all-time-quarterback/underwater-chords.htm
Привет, Гость.
Предлагаем пройти революционный курс по гитаре.
Подарок от PrimaNota.Ru, забирай!