PrimaNota.ru - самый крупный в мире бесплатный архив песенных текстов, аккордов, табулатур и нот


All-time Quarterback - Rules Broken - таба, видео

Регистрация Запомнить меня
Войти через:  Facebook Google Twitter Vk Yandex Mail.ru

All-time Quarterback - Rules Broken - таба, видео

Печатать
Просмотров: 79
-------------------------------------------------------------------------------
                       RULES BROKEN - All-Time Quarterback
-------------------------------------------------------------------------------
Tabbed by: Pat Malavi
pat.malavi@gmail.com


[Verse 1]

   Bm     G         D         Em        Riff 1            
e|------|---------|---------|---------|-----------------|-------------------|
B|------|-3---3-3-|-----3---|-5-5-5---|-/12-10----10----|-12-10-----10------|
G|-4--4-|-0---0-0-|-----2---|-0-0-0-0-|----0--0-11--9---|---0--0-11----9----|
D|-4--4-|---------|-0-0-----|---------|---------------0-|----------------0--|
A|-2--2-|---------|-------0-|---------|-----------------|-------------------|
E|------|---------|---------|---------|-----------------|-------------------|

Bm      G        D       Em             Riff 1
  They had a bad case of nostalgic blues
Bm      G       D             Em            Riff 1
  And started a group just to cop the tunes, bad boys whatcha gonna
Bm            G         D              Em             Riff 1
  And all the kids went crazy when the singer screamed
Bm               G          D            Em              Riff 1
  They set their cymbals on fire, it's a punk rock scene, bad boys whatcha gonna


[Chorus]

   Bm     G      D         Em        E                 G            
e|------|------|---------|---------|-----------------|----------------------|
B|------|-3--3-|-3-3-3---|-5-5-5---|-5-5-5-5-5-5-5-5-|-3-3-3-3-3-3-3-3------|
G|-4--4-|-0--0-|-2-2-2---|-0-0-0-0-|-4-4-4-4-4-4-4-4-|-4-4-4-4-4-4-4-4------|
D|-4--4-|-0--0-|-0-0-0-0-|---------|-2-2-2-2-2-2-2-2-|-5-5-5-5-5-5-5-5------|
A|-2--2-|------|---------|---------|-----------------|----------------------|
E|------|------|---------|---------|-----------------|----------------------|

Bm        G      D         Em              E                G
 And if we could break the rules that were already broken before we were born
Bm        G      D         Em       E                  G  
   Then we could hold them to their guns cos we'd be a punk rock band too


[Verse 2]

   Bm     G         D         Em        Riff 1            
e|------|---------|---------|---------|-----------------|-------------------|
B|------|-3---3-3-|-----3---|-5-5-5---|-/12-10----10----|-12-10-----10------|
G|-4--4-|-0---0-0-|-----2---|-0-0-0-0-|----0--0-11--9---|---0--0-11----9----|
D|-4--4-|---------|-0-0-----|---------|---------------0-|----------------0--|
A|-2--2-|---------|-------0-|---------|-----------------|-------------------|
E|------|---------|---------|---------|-----------------|-------------------|

Bm       G            D            Em          Riff 1
   They had the whole town getting real tattoos
Bm       G          D               Em            Riff 1   
   And wrote advice columns for the weekly review, bad boys whatcha gonna
Bm                 G        D          Em             Riff 1
   What could they possibly do next to shock the crowd
Bm             G         D                  Em              Riff 1
   We're gonna rock rock rock you, make you scream out loud, bad boys whatcha gonna


[Chorus]

   Bm     G      D         Em        E                 G            
e|------|------|---------|---------|-----------------|----------------------|
B|------|-3--3-|-3-3-3---|-5-5-5---|-5-5-5-5-5-5-5-5-|-3-3-3-3-3-3-3-3------|
G|-4--4-|-0--0-|-2-2-2---|-0-0-0-0-|-4-4-4-4-4-4-4-4-|-4-4-4-4-4-4-4-4------|
D|-4--4-|-0--0-|-0-0-0-0-|---------|-2-2-2-2-2-2-2-2-|-5-5-5-5-5-5-5-5------|
A|-2--2-|------|---------|---------|-----------------|----------------------|
E|------|------|---------|---------|-----------------|----------------------|

Bm        G      D         Em              E                G
 And if we could break the rules that were already broken before we were born
Bm        G      D         Em       E                  G  
   Then we could hold them to their guns cos we'd be a punk rock band too
Добавлено: 12.05.2016
Другие материалы по этой песне:
  • Аккорды и текст

Страница создана 12.05.2016
http://primanota.ru/all-time-quarterback/rules-broken-chords.htm
Привет, Гость.
Предлагаем пройти революционный курс по гитаре.
Подарок от PrimaNota.Ru, забирай!