PrimaNota.ru - самый крупный в мире бесплатный архив песенных текстов, аккордов, табулатур и нот


All-time Quarterback - Empire State - аккорды и текст, видео

Регистрация Запомнить меня
Войти через:  Facebook Google Twitter Vk Yandex Mail.ru

All-time Quarterback - Empire State - аккорды и текст, видео

Печатать
Просмотров: 79
Empire State
All-time Quarterback
-------------------------------------------------------------------------------
                        EMPIRE STATE - All-Time Quarterback
-------------------------------------------------------------------------------
Tabbed by: Pat Malavi
pat.malavi@gmail.com


Capo 5th fret

              Verse and Chorus                         Last Chorus Line

    D         D7M       D7        G              A                 Bb7
e|--2-2-2-2-|-2-2-2-2-|-2-2-2-2-|-3-3-3-3--------0-0-0-0-0-0-0-0-|-1-1-1-1-1--|
B|--3-3-3-3-|-2-2-2-2-|-1-1-1-1-|-3-3-3-3--------2-2-2-2-2-2-2-2-|-3-3-3-3-3--|
G|--2-2-2-2-|-2-2-2-2-|-2-2-2-2-|-0-0-0-0--------2-2-2-2-2-2-2-2-|-1-1-1-1-1--|
D|--0-0-0-0-|-0-0-0-0-|-0-0-0-0-|-0-0-0-0--------2-2-2-2-2-2-2-2-|-3-3-3-3-3--|
A|----------|---------|---------|--------------------------------|------------|
E|----------|---------|---------|--------------------------------|------------|


[Verse 1]
D            D7M    D7                        G
  The entire Empire State it couldn't hold me back, cause I was
D          D7M          D7                    G
  Driving away from the faces that I couldn't even place


[Chorus]
    D                  D7M            D7     G
And that's alright and that's okay by me
    D                  D7M            D7     G
And that's alright and that's okay by me
A                                     Bb7
I've got a couple books on tape and a fresh pack of cigarettes


[Verse 2]
D                D7M           D7                G    
  And if I think too much, the words seem to disappear, so I'll
D                D7M    D7               G    
Take you up on a Ferris wheel and simply grab your hand 


[Chorus]
    D                  D7M            D7     G
And that's alright and that's okay by me
    D                  D7M            D7     G
And that's alright and that's okay by me
A                                     Bb7
I've got a couple books on tape and a fresh pack of cigarettes
A                                     Bb7
That I've lit over twenty times and I guess I'll have to do it again
Добавлено: 12.05.2016
Вам также может быть интересно:
Другие материалы по этой песне:
  • Аккорды и текст

Страница создана 12.05.2016
http://primanota.ru/all-time-quarterback/empire-state-chords.htm
Привет, Гость.
Предлагаем пройти революционный курс по гитаре.
Подарок от PrimaNota.Ru, забирай!