PrimaNota.ru - самый крупный в мире бесплатный архив песенных текстов, аккордов, табулатур и нот


All Time Low - Hit The Lights - аккорды и текст, таба, видео

Регистрация Запомнить меня
Войти через:  Facebook Google Twitter Vk Yandex Mail.ru

All Time Low - Hit The Lights - аккорды и текст, таба, видео

Печатать
Просмотров: 285
Hit The Lights
All Time Low
Alright, This by no means is perfect (It's also my first tab), however it
plays pretty well with the song. Pretty good & simple if you don't care too
much about playing exactly the way the band does it. Any questions just email
me at riva.brent@gmail.com or comment below i'll do my best to help you out. 


Song: Hit the Lights (Tribute to a Night I'll Never Forget)
Artist: All Time Low
Album: The Three Words to Remember in Dealing with the End
Tabbed By: Brent.R

Alright, the basic powerchords you'll be using are....

C#   D   Eb   E   F#   A   E*  B
x    x   x    x   x    x   x   x
x    x   x    x   x    x   x   x
6    7   8    9   11   x   x   4
6    7   8    9   11   7   2   4
4    5   6    7   9    7   2   2
x    x   x    x   x    5   0   x




Gt. 1 Riff (just repeat until the 'intro part 1.')--Credit to Phloprox
|-------------------------------------------------------|
|-------------------------------------------------------|
|------------------------8h9p8--------------------------|
|----9---9-------9---9----------------------------------|
|7-7---------7-7----------------------------------------|
|-------------------------------------------------------|




Intro:
|gt.2 riff |



 intro part 1.               
|----------|---------------------------------------|
|----------|-9/8/9/11----------9-9-8-8-9-9-11-11---|
|-7--2--7--|-9/8/9/11---9------9-9-8-8-9-9-11-11---| x2 exclude last 3 
|-7--2--7--|-7/6/7/9----9-x10--7-7-6-6-7-7-9--9----|   power chords
|-5--0--5--|------------7--------------------------|   the 2nd time 
             ^ ^ ^ ^
Guitar Two:  | | | |
|-------------------------|      |------------------------------|
|-------------------------|      |--5/7/9/11--------------------|
|-----------9/11/13/15----| or   |--4/6/8/10--------------------|
|-----------9/11/13/15----|      |--2/4/6/8---------------------|
|-----------7/9/11/13-----|      |------------------------------|
|-------------------------|      |------------------------------|


[Verse 1]

C#                           A
I'm sitting here wishing for something that's missing
E*                 B
I'm waiting for you to tell me
C#                   
that time keeps on passing
A
I'm hoping, I'm asking
E*
to stand by your side
B                   C#
at least for tonight [Riff=something like 'C# C# B C#'x2]

[Pre-Chorus]

C#               A                         E*
let's follow through with this reckless dream
B
that's tearing me up inside
C#           A           E*    B (strum once)
and all the time we've been so in-nocent

[Chorus]
A  (strum once)                      E*
So don't you go I've got you where I want you
          B
and I'm never letting go
C# (strum once)      A (strum once)
hit the lights we'll be all right
    E*                      B
tonight our dreams come true


|---------------------------------------|             
|---------------------------------------|
|-7/6/7/9-----------9-9-8-8-9-9-11-11---|
|-7/6/7/9----7------9-9-8-8-9-9-11-11---| x2 exclude last 3 
|-5/4/5/7----7-x10--7-7-6-6-7-7-9--9----|   power chords
|------------5--------------------------|   the 2nd time 


[Verse 2]

C#
now lets take our chances
        A
please give me your answer
      E*                       B
it's all up to you so please take me away
C#
we've waited for so long
A                             E*
I can't say it feels wrong to close my eyes
   B                 C#
when all I see is you [Riff=something like 'C# C# B C#'x2]

[Pre-Chorus 2]
C#              A                        E*
let's follow through with this reckless dream
B
it's tearing me up inside
C#           A                  E*
and all the time we'll make it seem
No Guitar................)  B (powerful down strokes)
like we have nothing to hide...nothing to hide......

[Chorus]

A  (strum once)                                  E*
So don't you go I've got you where I want you
         B
and I'm never letting go
C#                   A     
hit the lights we'll be all right
 E*                         B
tonight our dreams come true

[Bridge]

                   {GUITAR ONLY PART}
                                          
|-----------------|  
|-----------------| 
|--9-8--6-4-------|  
|--9-8--6-4-------| 
|--7-6--4-2--x2---|  
|-----------------|   


                    {Bridge Chorus} 
(play normal chord pattern but strum each once)

    A                                 E*
So don't you go I've got you where I want you
          B
and I'm never letting go
C#                   A
hit the lights we'll be all right
E*                         B
tonight our dreams come true

[Chorus]

A (strum once)                        E*
So don't you go I've got you where I want you
         B
and I'm never letting go
C#                   A
hit the lights we'll be all right
E*                         B
tonight our dreams come true



End:

|---------------|
|---------------|
|-7/6/7/9-------|
|-7/6/7/9--7----|
|-5/4/5/7--7----|
|----------5----|
Добавлено: 13.04.2012
Другие материалы по этой песне:

Страница создана 27.02.2012
http://primanota.ru/all-time-low/hit-the-lights-chords.htm
Привет, Гость.
Предлагаем пройти революционный курс по гитаре.
Подарок от PrimaNota.Ru, забирай!