PrimaNota.ru - самый крупный в мире бесплатный архив песенных текстов, аккордов, табулатур и нот


All Time Low - Bad Enough For You - таба, видео

Регистрация Запомнить меня
Войти через:  Facebook Google Twitter Vk Yandex Mail.ru

All Time Low - Bad Enough For You - таба, видео

Печатать
Просмотров: 223
-----------------------------------
 Bad Enough For You ~ All Time Low
-----------------------------------
Dirty Work   (2011)


Tempo = About 93

Legend:
L - tied note
x - dead note
h - hammer on/pull off
b - bend
s - slide
~ - vibrato
g - ghost note
> - accentuated note
t - trill
M - palm mute
. - staccato
P - popping (bass)
S - slapping (bass)
+ - tapping
W - wide vibrato
< - fade in
w - whammy bar
= - tremolo picking
v - brush up
^ - brush down
V - pick stroke up
n - pick stroke down

    Intro                 Verse
E |-------|-------|----------------------------------------------------|
B |-------|-------|----------------------------------------------------|
G |-------|-------|----------------------------------------------------|
D |-------|-------|----------------------------------------------------|
A |-------|-------|--2--2--2--2----------------------------------------|
E |-------|-------|----------------------------------------------------|


----------------------------------------------------|
----------------------------------------------------|
----------------------------------------------------|
----------------------------------------------------|
--4--4--4--4----------------------------------------|
----------------------------------------------------|


----------------------------------------------------|
----------------------------------------------------|
----------------------------------------------------|
----------------------------------------------------|
--7--7--7--7----------------------------------------|
----------------------------------------------------|


----------------------------------------------------|
----------------------------------------------------|
----------------------------------------------------|
----------------------------------------------------|
--2--2--2--2----------------------------------------|
----------------------------------------------------|


----------------------------------------------------|
----------------------------------------------------|
----------------------------------------------------|
----------------------------------------------------|
--2--2--2--2----------------------------------------|
----------------------------------------------------|


----------------------------------------------------|
----------------------------------------------------|
----------------------------------------------------|
----------------------------------------------------|
--4--4--4--4----------------------------------------|
----------------------------------------------------|


----------------------------------------------------|
----------------------------------------------------|
----------------------------------------------------|
----------------------------------------------------|
--7--7--7--7----------------------------------------|
----------------------------------------------------|


----------------------------------------------------|
----------------------------------------------------|
----------------------------------------------------|
----------------------------------------------------|
--2--2--2--2----------------------------------------|
----------------------------------------------------|

Pre-Chorus
----------------------------------------------------|
----------------------------------------------------|
----------------------------------------------------|
----------------------------------------------------|
--7-----7--7--------------------------7-------------|
----------------------------------------------------|


----------------------------------------------------|
----------------------------------------------------|
----------------------------------------------------|
----------------------------------------------------|
--6-----6--6--------------------------6-------------|
----------------------------------------------------|


----------------------------------------------------|
----------------------------------------------------|
----------------------------------------------------|
----------------------------------------------------|
--7-----7--7--------------------------7-------------|
----------------------------------------------------|


----------------------------------------------------|
----------------------------------------------------|
----------------------------------------------------|
----------------------------------------------------|
--9--9--9--9--9--9--9--9--9--9--9--9--9--9--9--9----|
----------------------------------------------------|


----------------------------------------------------|
----------------------------------------------------|
----------------------------------------------------|
----------------------------------------------------|
--9--9--9--9--9--9--9--9--9--9--9--9--9-------------|
----------------------------------------------------|

Chorus
----------------------------------------------------|
----------------------------------------------------|
--4-----4--4-----4--4--4--6-----6--6-----6--6--6----|
--4-----4--4-----4--4--4--6-----6--6-----6--6--6----|
--2-----2--2-----2--2--2--4-----4--4-----4--4--4----|
----------------------------------------------------|


----------------------------------------------------|
----------------------------------------------------|
----------------------------------------------------|
--6-----6--6-----6--6--6--4-----4--4-----4--4--4----|
--6-----6--6-----6--6--6--4-----4--4-----4--4--4----|
--4-----4--4-----4--4--4--2-----2--2-----2--2--2----|


----------------------------------------------------|
----------------------------------------------------|
--4-----4--4-----4--4--4--6-----6--6-----6--6--6----|
--4-----4--4-----4--4--4--6-----6--6-----6--6--6----|
--2-----2--2-----2--2--2--4-----4--4-----4--4--4----|
----------------------------------------------------|


----------------------------------------------------|
----------------------------------------------------|
----------------------------------------------------|
--6-----6--6-----6--6--6--4-----4--4-----4--4--4----|
--6-----6--6-----6--6--6--4-----4--4-----4--4--4----|
--4-----4--4-----4--4--4--2-----2--2-----2--2--2----|


----------------------------------------------------|
----------------------------------------------------|
--4-----4--4-----4--4--4--6-----6--6-----6--6--6----|
--4-----4--4-----4--4--4--6-----6--6-----6--6--6----|
--2-----2--2-----2--2--2--4-----4--4-----4--4--4----|
----------------------------------------------------|


----------------------------------------------------|
----------------------------------------------------|
----------------------------------------------------|
--6-----6--6-----6--6--6--4-----4--4-----4--4--4----|
--6-----6--6-----6--6--6--4-----4--4-----4--4--4----|
--4-----4--4-----4--4--4--2-----2--2-----2--2--2----|


----------------------------|
----------------------------|
----------------------------|
--2--2L-------2-------------|
--2--2L-------2-------------|
--0--0L-------0-------------|


----------------------------------------------------|
----------------------------------------------------|
----------------------------------------------------|
--6--------6--------------4--------4----------------|
--6--------6--------------4--------4----------------|
--4--------4--------------2--------2----------------|


----------------------------------------------------|
----------------------------------------------------|
--4-----4--4-----4--4--4--6-----6--6-----6--6--6----|
--4-----4--4-----4--4--4--6-----6--6-----6--6--6----|
--2-----2--2-----2--2--2--4-----4--4-----4--4--4----|
----------------------------------------------------|


----------------------------------------------------|
----------------------------------------------------|
----------------------------------------------------|
--6-----6--6-----6--6--6--4-----4--4-----4--4--4----|
--6-----6--6-----6--6--6--4-----4--4-----4--4--4----|
--4-----4--4-----4--4--4--2-----2--2-----2--2--2----|


----------------------------------------------------|
----------------------------------------------------|
--4-----4--4-----4--4--4--6-----6--6-----6--6--6----|
--4-----4--4-----4--4--4--6-----6--6-----6--6--6----|
--2-----2--2-----2--2--2--4-----4--4-----4--4--4----|
----------------------------------------------------|


----------------------------------------------------|
----------------------------------------------------|
----------------------------------------------------|
--6-----6--6-----6--6--6--4-----4--4-----4--4--4----|
--6-----6--6-----6--6--6--4-----4--4-----4--4--4----|
--4-----4--4-----4--4--4--2-----2--2-----2--2--2----|

Verse
----------------------------------------------------|
----------------------------------------------------|
----------------------------------------------------|
----------------------------------------------------|
--2--2--2--2----------------------------------------|
----------------------------------------------------|


----------------------------------------------------|
----------------------------------------------------|
----------------------------------------------------|
----------------------------------------------------|
--4--4--4--4----------------------------------------|
----------------------------------------------------|


----------------------------------------------------|
----------------------------------------------------|
----------------------------------------------------|
----------------------------------------------------|
--7--7--7--7----------------------------------------|
----------------------------------------------------|


----------------------------------------------------|
----------------------------------------------------|
----------------------------------------------------|
----------------------------------------------------|
--2--2--2--2----------------------------------------|
----------------------------------------------------|


----------------------------------------------------|
----------------------------------------------------|
----------------------------------------------------|
----------------------------------------------------|
--2--2--2--2----------------------------------------|
----------------------------------------------------|


----------------------------------------------------|
----------------------------------------------------|
----------------------------------------------------|
----------------------------------------------------|
--4--4--4--4----------------------------------------|
----------------------------------------------------|


----------------------------------------------------|
----------------------------------------------------|
----------------------------------------------------|
----------------------------------------------------|
--7--7--7--7----------------------------------------|
----------------------------------------------------|


----------------------------------------------------|
----------------------------------------------------|
----------------------------------------------------|
----------------------------------------------------|
--2--2--2--2----------------------------------------|
----------------------------------------------------|

Pre-Chorus
----------------------------------------------------|
----------------------------------------------------|
----------------------------------------------------|
----------------------------------------------------|
--7-----7--7--------------------------7-------------|
----------------------------------------------------|


----------------------------------------------------|
----------------------------------------------------|
----------------------------------------------------|
----------------------------------------------------|
--6-----6--6--------------------------6-------------|
----------------------------------------------------|


----------------------------------------------------|
----------------------------------------------------|
----------------------------------------------------|
----------------------------------------------------|
--7-----7--7--------------------------7-------------|
----------------------------------------------------|


----------------------------------------------------|
----------------------------------------------------|
----------------------------------------------------|
----------------------------------------------------|
--9--9--9--9--9--9--9--9--9--9--9--9--9--9--9--9----|
----------------------------------------------------|


----------------------------------------------------|
----------------------------------------------------|
----------------------------------------------------|
----------------------------------------------------|
--9--9--9--9--9--9--9--9--9--9--9--9--9-------------|
----------------------------------------------------|

Chorus
----------------------------------------------------|
----------------------------------------------------|
--4-----4--4-----4--4--4--6-----6--6-----6--6--6----|
--4-----4--4-----4--4--4--6-----6--6-----6--6--6----|
--2-----2--2-----2--2--2--4-----4--4-----4--4--4----|
----------------------------------------------------|


----------------------------------------------------|
----------------------------------------------------|
----------------------------------------------------|
--6-----6--6-----6--6--6--4-----4--4-----4--4--4----|
--6-----6--6-----6--6--6--4-----4--4-----4--4--4----|
--4-----4--4-----4--4--4--2-----2--2-----2--2--2----|


----------------------------------------------------|
----------------------------------------------------|
--4-----4--4-----4--4--4--6-----6--6-----6--6--6----|
--4-----4--4-----4--4--4--6-----6--6-----6--6--6----|
--2-----2--2-----2--2--2--4-----4--4-----4--4--4----|
----------------------------------------------------|


----------------------------------------------------|
----------------------------------------------------|
----------------------------------------------------|
--6-----6--6-----6--6--6--4-----4--4-----4--4--4----|
--6-----6--6-----6--6--6--4-----4--4-----4--4--4----|
--4-----4--4-----4--4--4--2-----2--2-----2--2--2----|


----------------------------------------------------|
----------------------------------------------------|
--4-----4--4-----4--4--4--6-----6--6-----6--6--6----|
--4-----4--4-----4--4--4--6-----6--6-----6--6--6----|
--2-----2--2-----2--2--2--4-----4--4-----4--4--4----|
----------------------------------------------------|


----------------------------------------------------|
----------------------------------------------------|
----------------------------------------------------|
--6-----6--6-----6--6--6--4-----4--4-----4--4--4----|
--6-----6--6-----6--6--6--4-----4--4-----4--4--4----|
--4-----4--4-----4--4--4--2-----2--2-----2--2--2----|


----------------------------|
----------------------------|
----------------------------|
--2--2L-------2-------------|
--2--2L-------2-------------|
--0--0L-------0-------------|


----------------------------------------------------|
----------------------------------------------------|
----------------------------------------------------|
--6--------6--------------4--------4----------------|
--6--------6--------------4--------4----------------|
--4--------4--------------2--------2----------------|


----------------------------------------------------|
----------------------------------------------------|
--4-----4--4-----4--4--4--6-----6--6-----6--6--6----|
--4-----4--4-----4--4--4--6-----6--6-----6--6--6----|
--2-----2--2-----2--2--2--4-----4--4-----4--4--4----|
----------------------------------------------------|


----------------------------------------------------|
----------------------------------------------------|
----------------------------------------------------|
--6-----6--6-----6--6--6--4-----4--4-----4--4--4----|
--6-----6--6-----6--6--6--4-----4--4-----4--4--4----|
--4-----4--4-----4--4--4--2-----2--2-----2--2--2----|


----------------------------------------------------|
----------------------------------------------------|
--4-----4--4-----4--4--4--6-----6--6-----6--6--6----|
--4-----4--4-----4--4--4--6-----6--6-----6--6--6----|
--2-----2--2-----2--2--2--4-----4--4-----4--4--4----|
----------------------------------------------------|

                                                     Bridge
----------------------------------------------------|-------|-------|-------|
----------------------------------------------------|-------|-------|-------|
----------------------------------------------------|--4----|-------|--4----|
--6-----6--6-----6--6--6--4-----4--4-----4--4--4----|--4----|--6----|--4----|
--6-----6--6-----6--6--6--4-----4--4-----4--4--4----|--2----|--6----|--2----|
--4-----4--4-----4--4--4--2-----2--2-----2--2--2----|-------|--4----|-------|


-------|-------|-------|-------|-------|-------|
-------|-------|-------|-------|-------|-------|
-------|--4----|-------|--4----|-------|-------|
--2----|--4----|--6----|--4----|--2----|-------|
--2----|--2----|--6----|--2----|--2----|-------|
--0----|-------|--4----|-------|--0----|-------|

Chorus/Outro
----------------------------------------------------|
----------------------------------------------------|
--4-----4--4-----4--4--4--6-----6--6-----6--6--6----|
--4-----4--4-----4--4--4--6-----6--6-----6--6--6----|
--2-----2--2-----2--2--2--4-----4--4-----4--4--4----|
----------------------------------------------------|


----------------------------------------------------|
----------------------------------------------------|
----------------------------------------------------|
--6-----6--6-----6--6--6--4-----4--4-----4--4--4----|
--6-----6--6-----6--6--6--4-----4--4-----4--4--4----|
--4-----4--4-----4--4--4--2-----2--2-----2--2--2----|


----------------------------------------------------|
----------------------------------------------------|
--4-----4--4-----4--4--4--6-----6--6-----6--6--6----|
--4-----4--4-----4--4--4--6-----6--6-----6--6--6----|
--2-----2--2-----2--2--2--4-----4--4-----4--4--4----|
----------------------------------------------------|


----------------------------------------------------|
----------------------------------------------------|
----------------------------------------------------|
--6-----6--6-----6--6--6--4-----4--4-----4--4--4----|
--6-----6--6-----6--6--6--4-----4--4-----4--4--4----|
--4-----4--4-----4--4--4--2-----2--2-----2--2--2----|


----------------------------------------------------|
----------------------------------------------------|
--4-----4--4-----4--4--4--6-----6--6-----6--6--6----|
--4-----4--4-----4--4--4--6-----6--6-----6--6--6----|
--2-----2--2-----2--2--2--4-----4--4-----4--4--4----|
----------------------------------------------------|


----------------------------------------------------|
----------------------------------------------------|
----------------------------------------------------|
--6-----6--6-----6--6--6--4-----4--4-----4--4--4----|
--6-----6--6-----6--6--6--4-----4--4-----4--4--4----|
--4-----4--4-----4--4--4--2-----2--2-----2--2--2----|


----------------------------|----------------------------|
----------------------------|----------------------------|
----------------------------|----------------------------|
--2--2L-------2-------------|--2--2L-------2-------------|
--2--2L-------2-------------|--2--2L-------2-------------|
--0--0L-------0-------------|--0--0L-------0-------------|


----------------------------|
----------------------------|
----------------------------|
--2--2L-------2-------------|
--2--2L-------2-------------|
--0--0L-------0-------------|


----------------------------------------------------|
----------------------------------------------------|
----------------------------------------------------|
--6--------6--------------4--------4----------------|
--6--------6--------------4--------4----------------|
--4--------4--------------2--------2----------------|


----------------------------------------------------|
----------------------------------------------------|
--4-----4--4-----4--4--4--6-----6--6-----6--6--6----|
--4-----4--4-----4--4--4--6-----6--6-----6--6--6----|
--2-----2--2-----2--2--2--4-----4--4-----4--4--4----|
----------------------------------------------------|


----------------------------------------------------|
----------------------------------------------------|
----------------------------------------------------|
--6-----6--6-----6--6--6--4-----4--4-----4--4--4----|
--6-----6--6-----6--6--6--4-----4--4-----4--4--4----|
--4-----4--4-----4--4--4--2-----2--2-----2--2--2----|


----------------------------------------------------|
----------------------------------------------------|
--4-----4--4-----4--4--4--6-----6--6-----6--6--6----|
--4-----4--4-----4--4--4--6-----6--6-----6--6--6----|
--2-----2--2-----2--2--2--4-----4--4-----4--4--4----|
----------------------------------------------------|


----------------------------------------------------|-------||
----------------------------------------------------|-------||
----------------------------------------------------|-------||
--6-----6--6-----6--6--6--4-----4--4-----4--4--4----|-------||
--6-----6--6-----6--6--6--4-----4--4-----4--4--4----|-------||
--4-----4--4-----4--4--4--2-----2--2-----2--2--2----|-------||
Добавлено: 01.09.2013
Другие материалы по этой песне:
  • Аккорды и текст

Страница создана 01.09.2013
http://primanota.ru/all-time-low/bad-enough-for-you-chords.htm
Привет, Гость.
Предлагаем пройти революционный курс по гитаре.
Подарок от PrimaNota.Ru, забирай!