PrimaNota.ru - самый крупный в мире бесплатный архив песенных текстов, аккордов, табулатур и нот


All Them Witches - The Marriage Of Coyote Woman - бас-таба, видео

Регистрация Запомнить меня
Войти через:  Facebook Google Twitter Vk Yandex Mail.ru

All Them Witches - The Marriage Of Coyote Woman - бас-таба, видео

Печатать
Просмотров: 139
-------------------------------------------------------------------------------
                             SONG NAME - Band Name
-------------------------------------------------------------------------------
Tabbed by:
E-mail:

Tuning:I tuned it in eadg but I'm begining to suspect its in drop D

build in slowly on the d on the a string(fifth fret position)
   Riff1                              00:21
G|-----------------------------------------------------------------------------|
D|-----------------------------------------------------------------3-----------|
A|--5---5----5-5-----5-----5----5-5-------3--5--5---3--5-----3--5-----5---3--5-|
E|------------------------------------4h5----------------4h5-------------------|

00:34    Riff2                         00:45
G|------------------------------------------------------------------------------------|
D|---------------------5--7--6--5-------------------------------------3---------------|
A|-------3--5--5/7--8---------------------------3--5--3-5-------3--5-----5---3--5-----|
E|---4h5------------------------------------4h5------------4h5------------------------|

Repeat riff 1 and 2                until 4:11


G|---------------------------------------------------------------------------------|
D|--------------------5--7--6--5-///////8--8----8-----8--7--6--5-----5--5-----5----|
A|-------3--5--5/7-8---------------------------------------------------------------|
E|---4h5-------------------------------------6-----6-----5--4--3--3--------3-------|

4:16
G|-------------------------------------------------------------------------------------------|
D|--5/8----7--6--5-----5--5---5----7---6--5----------8----8---8----8-------------------------|
A|-------------------------------------------------------------------------------------------|
E|--0/6----5--4--3---3------3------5---4--3---3-5-6----6----6----6---------------------------|

G|---------------------------------------------------------------------------|
D|---------------------------------------------------------------------------|
A|---------------------------------------------------------------------------|
E|---------------------------------------------------------------------------|

    4:22                            4:28
G|---------------------------------------------------------------------------|
D|--8---8----8-----5----5----5----------7-7-7-7-7-7-7-7----------------------|
A|---------------------------------------------------------------------------|
E|----6---6----6-----3-----3----3-------5-5-5-5-5-5-5-5----------------------|


4:34
G|-----------------------------------------------------|
D|-----------------------------------------------------|
A|-------3-5--3-----------5--3------------5-3----------|
E|--4h5----------5-4-3-1--------5-4-3-1-------5-4-3-1--|


4:43
G|-------------------------------------------------------------------------------------------|
D|-------------5-7-6-5-----------------------------------------------------------------------|
A|----5---7-8-------------3h5p3----------3h5p3----------3h5p3---------3h5p3------------------|
E|-------------------------------5-4-3-1--------5-4-3-1--------5-4-3-1-------5-4-3-1---------|


5:07
G|--------------------------------------------------------------------------------------|
D|-----------5-7-6-5---------------------------3------------------5--7--6--5(fade out)--|
A|---5--7-8---------------3-5-5---3-5------3-5---5------3-5--7-8------------------------|
E|--------------------4h5--------------4h5----------4h5---------------------------------|


| /  slide up
| \  slide down
| h  hammer-on
| p  pull-off
| ~  vibrato
| +  harmonic
| x  Mute note
===============================================================================
Добавлено: 24.12.2015
Другие материалы по этой песне:
  • Аккорды и текст

Страница создана 24.12.2015
http://primanota.ru/all-them-witches/marriage-of-coyote-woman-chords.htm
Привет, Гость.
Предлагаем пройти революционный курс по гитаре.
Подарок от PrimaNota.Ru, забирай!