PrimaNota.ru - самый крупный в мире бесплатный архив песенных текстов, аккордов, табулатур и нот


All The Day Holiday - Fingerprints - таба, видео

Регистрация Запомнить меня
Войти через:  Facebook Google Twitter Vk Yandex Mail.ru

All The Day Holiday - Fingerprints - таба, видео

Печатать
Просмотров: 109
-------------------------------------------------------------------------------
                             All the Day Holiday - Fingerprints
-------------------------------------------------------------------------------
Tabbed by:Matt Warner
Email:southtownmatt@gmail.com

This my first tab that I have posted. Its probably not 100% especially because I cant
out a few parts, but its close. There might be some question with some of the guitar 2
my speakers suck and its hard to hear.  I figured out as much as I could.  This is what 
have so far...

Tuning: Standard


Guitar 1
Intro
e------------------------------------------------------------------|
B--15--15-17--17---------------------------------------------------|
G----------------16--16--------14--14------------------------------|
D-----------------------17--17-------16--16-17--17-14--14----------|
A------------------------------------------------------------------|
E------------------------------------------------------------------|

e-----------------------------------------------------------|
B--15--15-17--17--------------------------------------------|
G---------------16--16-------14--14-14-14 (continue)--------|
D---------------------17--17--------------------------------|
A-----------------------------------------------------------|
E-----------------------------------------------------------|

e-----------------------------------------------|
B-----------------------------------------------|
G---14-14-14-16-16-16-12-12-12-12-12-12-12-12---|
D-----------------------------------------------|
A-----------------------------------------------|
E-----------------------------------------------|


verse
Nothing

Chorus
Comes in at 1:53 mark.  It pretty much repeats the intro
e------------------------------------------------------------|
B--15--15-17--17---------------------------------------------|
G---------------16--16-------14--14--------------------------|
D---------------------17--17-------16--16-17--17-14--14------|
A------------------------------------------------------------|
E------------------------------------------------------------|

e------------------------------------------------|
B------------------------------------------------|
G---14-14-14-16-16-16-12-12-12-12-12-12-12-12----|
D------------------------------------------------|
A------------------------------------------------|
E------------------------------------------------|

Verse 1
Nothing


Verse 2

Let notes ring and listen for the rhythm
e------------------------|-------------------|-------------------|
B---8--7-12--13-12-10-12-|-8-7-12-(10 or 13)-|---end on 5~-------|
G------------------------|-------------------|-------------------|
D------------------------|-------------------|-------------------|
A------------------------|-------------------|-------------------|
E------------------------|-------------------|-------------------|

End of verse 2
E|----------------------------------|
B|--10-12-8-15-10-12-8-5------------|
G|----------------------------------|
D|----------------------------------|
A|----------------------------------|
E|----------------------------------|


Chorus


Bridge
e---------------------------------|
B---------------------------------|
G---------------------------------|
D---------5----7----4----5--------|
A-------7----7----5----5----------|
E---------------------------------|


E|-------------------------------|
B}17-15-12~-12-10-8-7~-8-10\-----|
G|-------------------------------|
D|-------------------------------|
A|-------------------------------|
E|-------------------------------|

Repeat Chorus

Guitar 2

Intro
listen for rhythm
e|------------------------|-----------------------------|
B|-----17--15-------------|-----------------------------|
G|-16--x---x---16-17--7---|-12-11---17-16-17-16---------|
D|-x---14--12--x--x---x---|-x--x----x--x--x---x---------| repeat 2nd part twice
A|-14----------14-15--5---|-10-9----15-14-15-14---------|
E|------------------------|-----------------------------|


Verse 1
Listen for Rhythm
e---------------------------------|
B---------------------------------|
G--12---11--16-(14-------17)------|
D--x-----x--x---x---or---x--------|
A--10----9--14-(12-------15-)-----|
E---------------------------------|

Chorus
listen for rhythm
e----------------------------------|
B--------17--19-20-----------------|
G--12-----x--x--x------------------|
D---x----14--16-17-----------------|
A--10------------------------------|
E----------------------------------|

I cannot figure out the rest of the chorus.  Sorry.  My speakers are small and I cant
much of guitar 2.

Verse 2
Same as verse 1


Bridge
?

| /  slide up
| \  slide down
| h  hammer-on
| p  pull-off
| ~  let ring
| +  harmonic
| x  Mute note
===============================================================================


http://www.myspace.com/allthedayholiday
Добавлено: 27.07.2012
Вам также может быть интересно:
Другие материалы по этой песне:
  • Аккорды и текст

Страница создана 27.07.2012
http://primanota.ru/all-the-day-holiday/fingerprints-chords.htm
Привет, Гость.
Предлагаем пройти революционный курс по гитаре.
Подарок от PrimaNota.Ru, забирай!