PrimaNota.ru - самый крупный в мире бесплатный архив песенных текстов, аккордов, табулатур и нот


All That Remains - Weak Willed - текст песни, таба, бас-таба, драм-таба, видео

Регистрация Запомнить меня
Войти через:  Facebook Google Twitter Vk Yandex Mail.ru

All That Remains - Weak Willed - текст песни, таба, бас-таба, драм-таба, видео

Печатать
Просмотров: 232
All That Remains - The Weak Willed (Intro)


Tabbed by: rcw110131
Email: rcw110131@gmail.com


This is 100% correct....I slowed everything down in Adobe Audition and analyzed it note
note.  And yes, those are quadruplets that are tremolo picked, not triplets (slow it for
you'll see).  This makes it a little harder to get use to since most tremolo picking 
this consists of triplets.  And in case it's not obvious, the entire intro is palm muted.
I'm working on the whole song so expect that sometime soon.  Thanks, please
rate.


Tuning: D Standard (DGCFAD)


Guitars I (Right) + II (Left):

D|-----------------------------------|-----------------------------------|
A|-----------------------------------|-----------------------------------|
F|-----------------------------------|-----------------------------------|
C|-----------------------------------|--------------------9-9-9-9--------|
G|7-7-7-7-10-10-10-10-9-9-9-9-7-7-7-7|10-10-10-10-9-9-9-9---------9-9-9-9|
D|-----------------------------------|-----------------------------------|
PM. . . .  .  .  .  . . . . . . . . .  .  .  .  . . . . . . . . . . . . .

D|-----------------------------------|---------------------------------------|
A|-----------------------------------|---------------------------------------|
F|-----------------------------------|---------------------------------------|
C|-----------------------------------|--------------------10-10-10-10--------|
G|6-6-6-6-10-10-10-10-9-9-9-9-6-6-6-6|10-10-10-10-9-9-9-9-------------9-9-9-9|
D|-----------------------------------|---------------------------------------|
PM. . . .  .  .  .  . . . . . . . . .  .  .  .  . . . . .  .  .  .  . . . . .

D|-----------------------------------|-----------------------------------|
A|-----------------------------------|-----------------------------------|
F|-----------------------------------|-----------------------------------|
C|-----------------------------------|--------------------9-9-9-9--------|
G|7-7-7-7-10-10-10-10-9-9-9-9-7-7-7-7|10-10-10-10-9-9-9-9---------9-9-9-9|
D|-----------------------------------|-----------------------------------|
PM. . . .  .  .  .  . . . . . . . . .  .  .  .  . . . . . . . . . . . . .

D|-------------------------------|-----------------------------------|
A|-------------------------------|-----------------------------------|
F|-------------------------------|-----------------------------------|
C|-------------------------------|-----------------------------------|
G|7-7-7-7-6-6-6-6----------------|--------10-10-10-10-6-6-6-6-9-9-9-9|
D|----------------8-8-8-8-6-6-6-6|7-7-7-7----------------------------|
PM. . . . . . . . . . . . . . . . . . . .  .  .  .  . . . . . . . . .


THEN


Guitar I (Right): same as above

Guitar II (Left):

D|-----------------------------------------------|------------------------|
A|-----------------------------------------------|------------------------|
F|-----------------------------------------------|------------------------|
C|-----------------------------------------------|------------------------|
G|10-10-10-10-14-14-14-14-12-12-12-12-10-10-10-10|14-14-14-14-12-12-12-12-|
D|-----------------------------------------------|------------------------|
PM .  .  .  .  .  .  .  .  .  .  .  .  .  .  .  .  .  .  .  .  .  .  .  .

------------------------|
------------------------|
------------------------|
-13-13-13-13------------|
-------------12-12-12-12|
------------------------|
  .  .  .  .  .  .  .  .

D|---------------------------------------|-----------------------------------|
A|---------------------------------------|-----------------------------------|
F|---------------------------------------|-----------------------------------|
C|---------------------------------------|-----------------------------------|
G|9-9-9-9-14-14-14-14-12-12-12-12-9-9-9-9|10-10-10-10-9-9-9-9-7-7-7-7-6-6-6-6|
D|---------------------------------------|-----------------------------------|
PM. . . .  .  .  .  .  .  .  .  . . . . .  .  .  .  . . . . . . . . . . . . .

D|-----------------------------------------------|------------------------|
A|-----------------------------------------------|------------------------|
F|-----------------------------------------------|------------------------|
C|-----------------------------------------------|------------------------|
G|10-10-10-10-14-14-14-14-12-12-12-12-10-10-10-10|14-14-14-14-12-12-12-12-|
D|-----------------------------------------------|------------------------|
PM .  .  .  .  .  .  .  .  .  .  .  .  .  .  .  .  .  .  .  .  .  .  .  .

------------------------|
------------------------|
------------------------|
-13-13-13-13------------|
-------------12-12-12-12|
------------------------|
  .  .  .  .  .  .  .  .

D|---------------------------------------|-----------------------------------|
A|---------------------------------------|-----------------------------------|
F|---------------------------------------|-----------------------------------|
C|---------------------------------------|--------9-9-9-9-10-10-10-10-7-7-7-7|
G|10-10-10-10-9-9-9-9-7-7-7-7-10-10-10-10|9-9-9-9----------------------------|
D|---------------------------------------|-----------------------------------|
PM .  .  .  . . . . . . . . .  .  .  .  . . . . . . . . .  .  .  .  . . . . .


DONE


Once again I'm working on the entire song so expect it sometime soon....
Добавлено: 01.05.2012
Другие материалы по этой песне:

Страница создана 05.03.2012
http://primanota.ru/all-that-remains/the-weak-willed-chords.htm
Привет, Гость.
Предлагаем пройти революционный курс по гитаре.
Подарок от PrimaNota.Ru, забирай!