PrimaNota.ru - самый крупный в мире бесплатный архив песенных текстов, аккордов, табулатур и нот


All That Remains - Some Of The People All Of The Time - текст песни, таба, видео

Регистрация Запомнить меня
Войти через:  Facebook Google Twitter Vk Yandex Mail.ru

All That Remains - Some Of The People All Of The Time - текст песни, таба, видео

Печатать
Просмотров: 172
Авторы музыки: Mike Martin, Jason Costa, Oli Herbert, Philip LaBonte
Авторы текста: Philip LaBonte
Drop C#       Some of the people all of the time – All That Remains

Legend:  /=slide
         b= bend
         h and p = Hammer on and pull off
         ~=Let ring


    Verse 1: (x4)
C# |--------------------------------------------------------------------|
G# |--------------------------------------------------------------------|
E  |--------------------------------------------------------------------|
B  |--------------------------------------------------------------------|
F# |--------------------------------------------------------------------|
C# |----0-0-0-----0-0-0------0-0-0------0-0-0-----7h10h7---8h11h8-------|


   |--------------------------------------------------------------------|
   |--------------------------------------------------------------------|
   |--------------------------------------------------------------------|
   |--------------------------------------------------------------------|
   |-------------------------------7---------6--------------------------|
   |-------0-0-0------0-0-0----0-0-7-----0-0-6--------------------------|



Verse 2:
C# |-------------------------------------------------------------------------|
G# |-------------------------------------------------------------------------|
E  |-------------------------------------------------------------------------|
B  |--3p0---0-0-0-0-0-0---3p0-—0-0--5p0--0-0--3p0---0-0-0-0-0-0---33---------|
F# | ---------------------------------------------------------------55-44-55-|
C# |-------------------------------------------------------------------------|



C# |-------------------------------------------------------------------------|
G# |-------------------------------------------------------------------------|
E  |-------------------------------------------------------------------------|
B  |---3p0---0-0-0-0-0-0--3p0—0-0--5p0--0-0--3p0----0-0-0-0-0-0--------------|
F# | ------------------------------------------------------------3---2-0-----|
C# |-------------------------------------------------------------3-0-2-0-----|




Chorus
C# |-------------------------------------------------------------------------|
G# |-------------------------------------------------------------------------|
E  |--3~------5~--------7~---------------------------------------------------|
B  |--3~------5~--------7~---------------------------------------------------|
F# |--1~------3~--------5~---------------------------------------------------|
C# |-------------------------------------------------------------------------|









Pre-solo
C# |-------------------------------------------------------------------------|
G# |-------------------------------------------------------------------------|
E  |-------------------------------------------------------------------------|
B  |---------------------------------------------------------------------0---|
F# |-------------8-----7-----5--------------8---7----5-----------1---0-------|
C# |--0-0-0---0-----0----0-------8-8-8----8---8---8----1-1-1---1---1---1-----|




C# |--------------------------------------------------------------------------|
G# |--------------------------------------------------------------------------|
E  |--------------------------------------------------------------------------|
B  |--------------------------------------------------------------------------|
F# |------------7---8---5-----------------------------------------------------|
C# |--7-7-7---7---7---7-------------------------------------------------------|


The outro is just an open chord on the big c#.
And I'm working on the solo, i'll post it eventually when i get around to it.



Song layout: Verse 1: (x4)
                Verse 2: (x2)
                     Verse 1 (x2)
                     Chorus
                     Verse 2: (x4)
                     Chorus (x2)
                     Pre-chorus
                     Solo
                     Outro\breakdown
Добавлено: 27.07.2012
Другие материалы по этой песне:

Страница создана 06.03.2012
http://primanota.ru/all-that-remains/some-of-the-people-all-of-the-time-chords.htm
Привет, Гость.
Предлагаем пройти революционный курс по гитаре.
Подарок от PrimaNota.Ru, забирай!