PrimaNota.ru - самый крупный в мире бесплатный архив песенных текстов, аккордов, табулатур и нот


All That Remains - Indictment - текст песни, таба, видео

Регистрация Запомнить меня
Войти через:  Facebook Google Twitter Vk Yandex Mail.ru

All That Remains - Indictment - текст песни, таба, видео

Печатать
Просмотров: 300
TUNNING (D G C F A D) Standard D

KEY
/ = slide
... = palm mute

Intro
|------------------------------------------------------------|
|------------------------------------------------------------|
|------------------------------------------------------------|
|------------------------------------------------------------|
|---------7/8/7-----10/8-7-7/8--------7/8/7-----5/7-----3/5--|
|--000000-------000------------000000-------000-----000------|
   ......       ...            ......       ...     ...

|----------------------------------------------|
|----------------------------------------------|
|----------------------------------------------|
|--------------------------------3-5--8-7--2~--|
|---------7/8/7-----7/5-----5/3--3-5--8-7--2~--|
|--000000-------000-----000------3-5--8-7--2~--|
   ......       ...     ...

Well thats it im still workin on the rest...hopefully this will help some along to 
the rest! enjoy!
Добавлено: 05.07.2012
Другие материалы по этой песне:

Страница создана 22.03.2012
http://primanota.ru/all-that-remains/indictment-chords.htm
Привет, Гость.
Предлагаем пройти революционный курс по гитаре.
Подарок от PrimaNota.Ru, забирай!