PrimaNota.ru - самый крупный в мире бесплатный архив песенных текстов, аккордов, табулатур и нот


All That Remains - Hold On - текст песни, таба, бас-таба, видео

Регистрация Запомнить меня
Войти через:  Facebook Google Twitter Vk Yandex Mail.ru

All That Remains - Hold On - текст песни, таба, бас-таба, видео

Печатать
Просмотров: 267
Авторы: Rob Graves
Авторы музыки: Mike Martin, Jason Costa, Oli Herbert, Philip LaBonte
Авторы текста: Philip LaBonte
----------------------------------------------------------------------------
                             HOLD ON - ALL THAT REMAINS
-----------------------------------------------------------------------------
Tabbed by: cohen
Email:c.shaw@live.com.au

Tuning:C# F# B E G# C#



c#|---------------------------------------------------------------------------|
g#|-----------------------------------------------------5-0-0-7-0-0-8-0-0-----|
e |-------------------------------------9--11B--9wiggle-----------------------|
b |--------7------7-9----7-9-10-9-10-12---------------------------------------|
f#|-7-9-10---9-10-----10------------------------------------------------------|
c#|---------------------------------------------------------------------------|

e|-------------------------------------19p-15----15----15----15----15-14-15-|
B|-10-0-0-12-13-12-10-12-10-------/17--------17----17----17----17-----------|
G|--------------------------12-11-------------------------------------------|
D|--------------------------------------------------------------------------|
A|--------------------------------------------------------------------------|
E|--------------------------------------------------------------------------|
                              shred
e|-17-14-19-14-20-14-19wiggle--------20-19-17-19-17----17-------------------|
B|-------------------------------------------------20----20-19-20-19-17-15--|
G|--------------------------------------------------------------------------|
D|--------------------------------------------------------------------------|
A|--------------------------------------------------------------------------|
E|--------------------------------------------------------------------------|

e|--------------------------------------------------------------------------|
B|-17-19-13-15-17-12-13-15--10-12-13----------12----------------------------|
G|--------------------------------------12-14----11-12-14ph-----------------|
D|------------------------------------------------------------14------------|
A|--------------------------------------------------------------------------|
E|--------------------------------------------------------------------------|

e|--------------------------------------------------------------------------|
B|--------------------------------------------------------------------------|
G|-11-12-14-12-11-12-11----11-----------------------------------------------|
D|----------------------14----14-12----10-12-14-12-10-12-10----10-------14--|
A|----------------------------------14----------------------14----14-12-----|
E|--------------------------------------------------------------------------|

e                                                      end shred
e|------------------------------------------15-19h-22t-19p-15---------------|
B|-----------------12-------12-13-15-15-17----------------------17----------|
G|--11-12-14-12-14------14--------------------------------------------------|
D|--------------------------------------------------------------------------|
A|--------------------------------------------------------------------------|
E|--------------------------------------------------------------------------|

e|--------------------------------------------------------------------------|
B|--------------------------------------------------------------------------|
G|----------------------------------12--11----------------------------------|
D|------------10----12----9-10----------------------------------------------|
A|-10-9-12-10----12----12------7-9--10---9----------------------------------|
E|--------------------------------------------------------------------------|


I JUST GOT THIS FROM GUITAR PRO SO IF THERE ARE ANY OTHER SONGS THAT ARE ONLY ON GP THE 
LEAVE A COMENT AND ILL CONVERT IT TO TABS.SMILEY FACE

************************************

| /   slide up
| \   slide down
| h   hammer-on
| p   pull-off
| wiggle   vibrato
| +   harmonic
| x   Mute note
| b   Bend
| pb  Pre-bend
| br  Bend release
| pbr Pre-bend release
| brb Bend release bend

************************************
Добавлено: 23.06.2012
Другие материалы по этой песне:

Страница создана 06.03.2012
http://primanota.ru/all-that-remains/hold-on-chords.htm
Привет, Гость.
Предлагаем пройти революционный курс по гитаре.
Подарок от PrimaNota.Ru, забирай!