PrimaNota.ru - самый крупный в мире бесплатный архив песенных текстов, аккордов, табулатур и нот


All Out War - Soaked In Torment - таба, видео

Регистрация Запомнить меня
Войти через:  Facebook Google Twitter Vk Yandex Mail.ru

All Out War - Soaked In Torment - таба, видео

Печатать
Просмотров: 100
Artist: All Out War
Album: For Those Who Were Crucified

Instrument: 6 String Guitar

Tabbed by: Nicky Ballz (nicky.ballz@verizon.net)

Tuning: 1 Step Down (D G C F A D)Intro:
D|----------------------------------||
A|---------------------------------*|| 
F|----------------------------------||Play First 15 seconds
C|----------------------------------||
G|-22222222222222222222222222222---*||
D|-00000000000000000000000000000----||
   xxxxxxxxxxxxxxxxxxxxxxxxxxxxx

D|--------------------------------------------------||
A|-------------------------------------------------*||
F|---------------9999-----------10101010-10101010---||4x
C|---------------9999-----------10101010-10101010---||
G|-222222-222222-7777-222222-22--8-8-8-8--8-8-8-8--*||
D|-000000-000000------000000-00---------------------||
   xxxxxx xxxxxx      xxxxxx xx 

Verse Riff 1:
D|------------------------------|------------------------------------||
A|------------------------------|-----------------------------------*||
F|------------------------------|------------------------------------||4x
C|---------------9-7---7--------|------------/9-7---7---7-6~~~-------||
G|-2-2-2-2-2--/7-----8---8-7~~~-|-2-2-2-2-2-------8---8-------------*||
D|-0-0-0-0-0--------------------|-0-0-0-0-0--------------------------||
   x x x x x                      x x x x x

Verse Riff 2:
D|------------------------------|------------------------------------||
A|------------------------------|-----------------------------------*||
F|------------------------------|------------------------------------||2x
C|--------------9-7---7---------|-----------/9-7---7---7-6~~~--------||
G|-22222222--/7-----8---8-7~~~--|-22222222-------8---8--------------*||
D|-00000000---------------------|-00000000---------------------------||
   xxxxxxxx                       xxxxxxxx

Fill 1:
D|----------------||
A|----------------||
F|-8-10-8-7-10-9--||
C|-9-10-8-7-10-9--||
G|-7--8-6-5--8-7--||
D|----------------||

Verse Riff 3:
D|-------------------------------|-----------------------------------||
A|-------------------------------|-----------------------------------||
F|-------------------------------|---------------------------10-9----||2x
C|-------------------------------|---------------------------10-9----||
G|-222-222-3-2---8---7---3---5-4-|-222-222-3-2---2-5\4---8----8-7----||
D|-000-000-1-0-0-6-0-5-0-1-0-3-2-|-000-000-1-0-0-0-3\2-0-6-0---------||
   xxx xxx     x   x   x   x       xxx xxx     x       x   x

Verse Riff 4:
                                     1.
D|----------------------------------|--------------------------------||
A|----------------------------------|-------------------------------*||
F|--------------------------10\9/10-|--------------------------------||
C|-----------------2--------10\9/10-|-----------------2-3------------||
G|-2-22-2-2-2-22-2-2--2-222--8\7/-8-|-2-22-2-2-2-22-2-2-3-666-555---*||
D|-0-00-0-0-0-00-0-0--0-000---------|-0-00-0-0-0-00-0-0-1-444-333----||
   x xx x x x xx x    x xxx           x xx x x x xx x     xxx xxx

  2.
D|---------------------------------||
A|--------------------------------*||
F|---------------------------------||2x
C|-----------------2-3-6-5---------||
G|-2-22-2-2-2-22-2-2-3-6-5--------*||
D|-0-00-0-0-0-00-0-0-1-4-3---------||
   x xx x x x xx x            

Break:
D|----||-------------------------|-------------------------------------||
A|----||-------------------------|------------------------------------*||
F|----||-------------------------|-------------------------------------||
C|----||----------9-7---7--------|--------/9-7---7---7-6~~~------------||
G|-22-||-22-22-/7-----8---8-7~~~-|-22-22-------8---8------------------*||
D|-00-||-00-00-------------------|-00-00-------------------------------||
   xx    xx xx                     xx xx

Fill 2:
D|----------------||
A|----------------||
F|----------------||
C|-2-3-6-5-3-5----||
G|-2-3-6-5-3-5----||
D|-0-1-4-3-1-3----||

Outro:
D|------------------||
A|-----------------*||
F|------------------||
C|------------------||
G|-2-3-4-3-4-5-4-3-*||
D|-0-1-2-1-2-3-2-1--||
   x x x x x x x x  8x

D|------------------||------------------||
A|-----------------*||-----------------*||
F|------------------||------------------|| Play 2x
C|------------------||------------------||
G|-2-3-4-3-4-5-4-3-*||-2-3-4-3-4-5-4-3-*||
D|-0-1-2-1-2-3-2-1--||-0-1-2-1-2-3-2-1--||
                       x x x x x x x x

End on:  D|---||
         A|---||
         F|---||
         C|-2-||
         G|-2-||
         D|-0-||

Sequence:
Intro
Verse Riff 1
Verse Riff 2
Fill 1
Verse Riff 3
Verse Riff 4
Break
Verse Riff 2
Fill 2
Verse Riff 3
Verse Riff 4
Outro
Добавлено: 20.03.2012
Вам также может быть интересно:
Другие материалы по этой песне:

Страница создана 17.03.2012
http://primanota.ru/all-out-war/soaked-in-torment-chords.htm
Привет, Гость.
Предлагаем пройти революционный курс по гитаре.
Подарок от PrimaNota.Ru, забирай!