PrimaNota.ru - самый крупный в мире бесплатный архив песенных текстов, аккордов, табулатур и нот


All My Friends Are Oranges - Killer Kettles - таба, видео

Регистрация Запомнить меня
Войти через:  Facebook Google Twitter Vk Yandex Mail.ru

All My Friends Are Oranges - Killer Kettles - таба, видео

Печатать
Просмотров: 67
Уроки эстрадного вокала в Санкт-Петербурге
Title: Killer Kettles
Band: All My Friends Are Oranges
Album: Way With The Apples (2002)

tabbed by scef (email: funnell_teen_spirit@yahoo.com)

what an amazing song!! wasn't too hard to work
out...if anyone's got any tabs for any other AMFAO
songs pls pls pls let me know cos they're pretty damn
hard to work out, especially with all those effects
and everything...anyways enough rambling and on we
go...

intro 
e-----------0-----|-----------0-----|
B---------0---0h2-|---------0---0h2-|
G-----2-----------|-----2-----------|
D---2-------------|---2-------------|
A-----------------|-----------------|
E-2-----2---------|-2-----2---------|

e-----------0-----|-0---------------|
B---------0---0---|-3---------------|
G-----2-----------|-3---------------|
D---2-------------|-2---------------|
A-----------------|-3---------------|
E-2-----2---------|-----------------|


verse 

play this bit 12 times
e-----2-------2h3p2-|
B---3---3---3-------|
G-4-------0---------|
D-------------------|
A-------------------|
E-------------------|

then play this 3 times
e-----5-----5-----|
B---7---7-6---6---|
G-7-------------7-|
D-----------------|
A-----------------|
E-----------------|

then this bit once
e-7-----7-10-10-10-10-|-12-12-12-12-12-12-12-12-|
B---8-----8--8--8--8--|-9--9--9--9--9--9--9--9--|
G-----9---9--9--9--9--|-9--9--9--9--9--9--9--9--|
D---------------------|-9--9--9--9--9--9--9--9--|
A---------------------|-------------------------|
E---------------------|-------------------------|
                      |
                       \
                        hit on the distortion!

chorus

play this bit 3 times
e-----------------|-----------------|
B-----------------|-----------------|
G-9-9-6-7-7-7-4-6-|-6-6-2-4-4-4-2-2-|
D-----------------|-----------------|
A-7-7-4-5-5-5-2-4-|-4-4-0-2-2-2-0-0-|
E-0-0-0-0-0-0-0-0-|-0-0-0-0-0-0-0---|

then this bit once
e-----------------|-------------------|
B-----------------|-------------------|
G-9-9-6-7-7-7-4-6-|-6-6-4-6b7b6-4-2---|
D-----------------|-------------------|
A-7-7-4-5-5-5-2-4-|-4-4-2-4b5b4-2-0---|
E-0-0-0-0-0-0-0-0-|-0-0-0-0-----0-0---|


then it's back to verse, then chorus, then there's
this bit:

play this 3 times
e-0-0---0-0-0---0-|-0-0-0-0-0-0-0-0-|
B-0-0---0-0-0---0-|-0-0-0-0-0-0-0-0-|
G-4-4---4-6-6---6-|-9-9-9-9-9-9-9-9-|
D-4-4---4-6-6---6-|-9-9-9-9-9-9-9-9-|
A-2-2---2-4-4---4-|-7-7-7-7-7-7-7-7-|
E-0-0---0-0-0---0-|-0-0-0-0-7-7-7-7-|

then play this bit once
e-0--0--0--0--0--0--0--0--|-0--0--0--0--0--0--0--0--|
B-0--0--0--0--0--0--0--0--|-0--0--0--0--0--0--0--0--|
G-11-11-11-11-11-11-11-11-|-13-13-13-13-13-13-13-13-|
D-11-11-11-11-11-11-11-11-|-13-13-13-13-13-13-13-13-|
A-9--9--9--9--9--9--9--9--|-11-11-11-11-11-11-11-11-|
E-9--9--9--9--9--9--9--9--|-11-11-11-11-11-11-11-11-|


then play chorus twice. over the top of the 2nd chorus
a 2nd guitar plays this:

this bit 3 times
e-12-12-12-12-10-10-10-10-|-9-9-9-9-7-7-7-7-|
B-------------------------|-----------------|
G-9--9--9--9--7--7--7--7--|-6-6-6-6-4-4-4-4-|
D-------------------------|-----------------|
A-------------------------|-----------------|
E-------------------------|-----------------|

then this bit once
e-12-12-12-12-10-10-10-10-|-9-9-9-9-9-9-5---|
B-------------------------|-----------------|
G-9--9--9--9--7--7--7--7--|-6-6-6-6-6-6-2---|
D-------------------------|-----------------|
A-------------------------|-----------------|
E-------------------------|-----------------|


then finish with this bit:

play this twice (slowly)
e-----2-------2h3p2-|
B---3---3---3-------|
G-4-------0---------|
D-------------------|
A-------------------|
E-------------------|

then play this
e-----2---3-2-2/3-2-|-2---------------|
B---3---3-----------|-3---------------|
G-4-----------------|-2---------------|
D---------5-4-4/5-4-|-0---------------|
A-------------------|-----------------|
E-------------------|-----------------|

and that's it! oh look I'm the 1st one to put AMFAO on
 mwahahaha!!
     
Добавлено: 04.10.2013
Другие материалы по этой песне:
  • Аккорды и текст

Страница создана 24.09.2013
http://primanota.ru/all-my-friends-are-oranges/killer-kettles-chords.htm
Привет, Гость.
Предлагаем пройти революционный курс по гитаре.
Подарок от PrimaNota.Ru, забирай!