PrimaNota.ru - самый крупный в мире бесплатный архив песенных текстов, аккордов, табулатур и нот


All The Luck In The World - Haven - таба, видео

Регистрация Запомнить меня
Войти через:  Facebook Google Twitter Vk Yandex Mail.ru

All The Luck In The World - Haven - таба, видео

Печатать
Просмотров: 93
Haven - All The Luck In The World
Tabbed by: cozzac

Hey guys! This is my first time writing out a tab so i hope it's legible and y'all are able to follow it !
I can't take credit for this tab, learnt it by ear from https://www.youtube.com/watch?v=pAZEpg6AHUg and 
wrote it down for others to play :)
Sounds a wee bit different from the original, but in terms of something to sing along to it's pretty good

Standard tuning                Capo 2                Tab relative to capo


Intro
e|--------2p0--0-------------------------------------|
B|---------------------2p0---------------------------|
G|--------------------------2-------2\4----4\6-------|
D|-----------------------------0--0------------------|
A|--0--0---------0--0--------------------------------|
E|---------------------------------------------------|

Verse
|-------------------------------------------------------------------|
|--------2-------2-------2-------2-------2-------2-------2-------2--|
|----2-------2-------2-------2-------2-------2-------2-------2------|     x10
|----------------------------------0---0---0---0---0---0---0---0----|
|--0---0---0---0---0---0---0---0------------------------------------|
|-------------------------------------------------------------------|

...and I knew then,     I'd do anything to never leave the room
|----------------------------------|
|--------2--------------------2----|
|--------2--------------------2----|
|-----------------------------0----|
|--------2-------------------------|
|----------------------------------|

[Verse]


[Intro] x4


Interlude
|-------------------------------------------------------------------|
|--------2-------2-------2-------2-------2-------2-------2-------2--|
|----2-------2-------2-------2-------2-------2-------2-------2------|     x2
|----------------------------------0---0---0---0---0---0---0---0----|
|--0---0---0---0---0---0---0---0------------------------------------|
|-------------------------------------------------------------------|

|-------------------------------------------------------------------|
|--------2-------2-------2-------2-------2-------2-------2-------2--|
|----2-------2-------2-------2-------2-------2-------2-------2------|
|----------------------------------0---0---0---0---0---0---0---0----|
|--4---4---4---4---4---4---4---4------------------------------------|
|-------------------------------------------------------------------|

|-------------------------------------------------------------------|
|--------2-------2-------2-------2-------2-------2-------2-------2--|
|----1-------1-------1-------1-------2-------2-------2-------2------|
|--2---2---2---2---2---2---2---2---4---4---4---4---4---4---4---4----|
|-------------------------------------------------------------------|
|-------------------------------------------------------------------|

|--------------------------------------|
|--------2-------2-------5-------5-----|
|----2-------2-------4-------4---------|
|--4---4---4---4---6---6---6---6-------|
|--------------------------------------|
|--------------------------------------|



              You're a rush of colour in a 50's film
|--------------------------------------------------------------------|
|--------2-------2-------2-------2-------2-------2-------2-------2---|
|----2-------2-------2-------2-------2-------2-------2-------2-------|
|--------------------------------------------------------------------|
|--0---0---0---0---0---0---0---0---0---0---0---0---0---0---0---0-----|
|--------------------------------------------------------------------|

              You're a prisoners hands on a moving train
|--------------------------------------------------------------------|
|--------2-------2-------2-------2-------2-------2-------2-------2---|
|----1-------1-------1-------1-------1-------1-------1-------1-------|
|--2---2---2---2---2---2---2---2---2---2---2---2---2---2---2---2-----|
|--------------------------------------------------------------------|
|--------------------------------------------------------------------|

                                                   And I'm tied to you
|--------------------------------------------------------------------|
|--------2-------2-------2-------2-------2-------2-------2-------2---|
|----2-------2-------2-------2-------2-------2-------2-------2-------|
|--0---0---0---0---0---0---0---0---0---0---0---0---0---0---0---0-----|
|--------------------------------------------------------------------|
|--------------------------------------------------------------------|

                                           I'm tied to you
|--------0-------------------------------0---------------------------|
|----------------3-------2-------2---------------3-------2-------2---|
|----2-------2-------2-------2-------2-------2-------2-------2-------|
|----------------------------------0---0---0---0---0---0---0---0-----|
|--0---0---0---0---0---0---0---0-------------------------------------|
|--------------------------------------------------------------------|

                                           I'm tied to you
|--------0-----------------------------------------------------------|
|----------------3-------2-------2-------2-------2-------2-------2---|
|----2-------2-------2-------2-------1-------1-------1-------1-------|
|----------------------------------2---2---2---2---2---2---2---2-----|
|--0---0---0---0---0---0---0---0-------------------------------------|
|--------------------------------------------------------------------|


|--------------------------------------------------------------------|
|--------2-------2-------2-------2-------2-------2-------2-------2---|
|----2-------2-------2-------2-------2-------2-------2-------2-------|
|--4---4---4---4---4---4---4---4---4---4---4---4---0---0---0---0-----|
|--------------------------------------------------------------------|
|--------------------------------------------------------------------|

|--------------------------------------------------------------------|
|--------2--------2--------2-----2-------2-------2-------2-------2---|
|----1-------1-------1-------1-------2-------2-------2-------2-------|
|--2---2---2---2---2---2---2---2---4---4---4---4---4---4---4---4-----|
|--------------------------------------------------------------------|
|--------------------------------------------------------------------|
|--------------------------------------------------------------------|

|------------------------------------|
|--------2-------2-------5-------5---|
|----2-------2-------4-------4-------|
|--4---4---4---4---6---6---6---6-----|
|------------------------------------|
|------------------------------------|
|------------------------------------|

|--------0-------------------------------0---------------------------|
|----------------3-------2-------2---------------3-------2-------2---|
|----2-------2-------2-------2-------2-------2-------2-------2-------|
|----------------------------------0---0---0---0---0---0---0---0-----|
|--0---0---0---0---0---0---0---0-------------------------------------|
|--------------------------------------------------------------------|

                                                                   {strum down on this very last bit}
|--------0----------------------------------------------------------0-|
|----------------3-------2-------2-------2-------2-------2-------2--2-|
|----2-------2-------2-------2-------1-------1-------1-------1------2-|
|----------------------------------2---2---2---2---2---2---2---2----0-|
|--0---0---0---0---0---0---0---0--------------------------------------|
|---------------------------------------------------------------------|
Добавлено: 31.12.2015
Другие материалы по этой песне:
  • Аккорды и текст

Страница создана 31.12.2015
http://primanota.ru/all-luck-in-world/haven-chords.htm
Привет, Гость.
Предлагаем пройти революционный курс по гитаре.
Подарок от PrimaNota.Ru, забирай!