PrimaNota.ru - самый крупный в мире бесплатный архив песенных текстов, аккордов, табулатур и нот


All Get Out - Coach Connor - аккорды и текст, таба, видео

Регистрация Запомнить меня
Войти через:  Facebook Google Twitter Vk Yandex Mail.ru

All Get Out - Coach Connor - аккорды и текст, таба, видео

Печатать
Просмотров: 123
Coach Connor
All Get Out
Intro:
e|------------------------------------------|
B|------------------------------------------|
G|------------------------------------9-----|
D|---------5555555566666666777777776--9-----|
A|-----3---3333333333333333333333335--7-----|
E|-3h5---5----------------------------------|

e|---------------------------------------0-0-----|
B|---------------------------------------1-1-----|
G|----------------------------------5----0-0-----|
D|--555555556666666677777777666666665----2-0-----|
A|--333333333333333333333333333333333----3-2-0---|
E|-----------------------------------------------|

Am      G          C          F              Am
I still sit on the same white porch down the street
            G            C                 F            Am
Just to the right of the bed shades by the window in my seat 
               G               C            F
The same three pair of shoes I never worn before 
           Am
Sit by the door
            G             C
Its funny I sit here all alone

e|---------------------------------|
B|---------------------------------|
G|---5--5--5--55--5--5--5---5------|
D|---5--5--5--55--5--5--5---5------|
A|---3--3--3--33--3--3--3--33-2----|
E|---------------------------------|

Am           G              C                 F                  Am
I remember a time when this house was made of gold and hopes and dreams
              G            C                F                        Am
I loved every minute every second and every thought of what it could be
             G        C           F              Am
Took four to pay only three two afford, just barely
            G               C
Its funny I live here all alone

e|------------------------------------------------------------------------|
B|------------------------------------------------------------------------|
G|---5--5--5--55--5--5--5--55--5-5-5-5-5-5-5-5-555555555555555555555555---|
D|---5--5--5--55--5--5--5--55--5-5-5-5-5-5-5-5-555555555555555555555555---|
A|---3--3--3--33--3--3--3--33--3-3-3-3-3-3-3-3-333333333333333333333333---|
E|------------------------------------------------------------------------|
                                                  {Triplets here}

C                Am
The lights still turn on
F             G
The air still blows both hot and cold
C                Am      
The waters still running
F                       G (one strum)
All the neighbors still think I'm 12 years old
C              Am
Im working on eviction
F                       G
So where the hell could all of my friends be
C            Am            F                 G             Riff:
I have no convictions just seven years so Im able to buy again 

Riff:
e|--------------------------------------------------------------------|
B|--------------------------------------------------------------------|
G|--------------------------------------------------------------------|
D|-5555555566666666777777776666666677777777666666665555555555555555---|
A|-3333333333333333333333333333333333333333333333333333333333333333---| x2
E|--------------------------------------------------------------------|
   "Again..."

Outro:

Am, G, C, F, 
Am, G, C, F, Em, 
Am, G, C, F, 
Am, G, C
Добавлено: 16.05.2012
Другие материалы по этой песне:
  • Аккорды и текст

Страница создана 16.05.2012
http://primanota.ru/all-get-out/coach-connor-chords.htm
Привет, Гость.
Предлагаем пройти революционный курс по гитаре.
Подарок от PrimaNota.Ru, забирай!