PrimaNota.ru - самый крупный в мире бесплатный архив песенных текстов, аккордов, табулатур и нот


All Ends - Apologize - таба, видео

Регистрация Запомнить меня
Войти через:  Facebook Google Twitter Vk Yandex Mail.ru

All Ends - Apologize - таба, видео

Печатать
Просмотров: 130
All Ends - Apologize

Tuning:Drop D

INTRO 

Guitar I
|------------------------------------------------------------------------------------|
|------------------------------------------------------------------------------------|
|------------------------------------------------------------------------------------|
|------------------------------------------------------------------------------------|
|------------------------------------------------------------------------------------|
|------------------------------------------------------------------------------------|

Guitar II
|------------------------------------------------------------------------------------|
|------------------------------------------------------------------------------------|
|--10----10------12-----12------10-----10-----12------12-----------------------------|
|----12----12------12-----12------10-----10-----10------10---------------------------|
|------------------------------------------------------------------------------------|
|------------------------------------------------------------------------------------|


Guitar I
|------------------------------------------------------------------------------------|
|------------------------------------------------------------------------------------|
|------------------------------------------------------------------------------------|
|---------------------------------------------------------------------------------2X-|
|-0-0-0-0-0-0-0-0---10-10-10-10-10-10-10-10---3-3-3-3-3-3-3-3---3-3-3-3-3-3-3-3------|
|-0-0-0-0-0-0-0-0---10-10-10-10-10-10-10-10---3-3-3-3-3-3-3-3---2-2-2-2-2-2-2-2------|

Guitar II
|------------------------------------------------------------------------------------|
|------------------------------------------------------------------------------------|
|--10-----10---------12----------12-----------10------10--------12-------12----------|
|-----12-----12----------12----------12---------10------10--------10-------10-----2X-|
|------------------------------------------------------------------------------------|
|------------------------------------------------------------------------------------|


VERSE

Guitar I
|------------------------------------------------------------------------------------|
|------------------------------------------------------------------------------------|
|------------------------------------------------------------------------------------|
|------------------------------------------------------------------------------------|
|------------------------------------------------------------------------------------|
|------------------------------------------------------------------------------------|

Guitar II
|------------------------------------------------------------------------------------|
|------------------------------------------------------------------------------------|
|--10-----10---------12----------12-----------10------10--------12-------12----------|
|-----12-----12----------12----------12---------10------10--------10-------10-----2X-|
|------------------------------------------------------------------------------------|
|------------------------------------------------------------------------------------|


Guitar I
|------------------------------------------------------------------------------------|
|------------------------------------------------------------------------------------|
|------------------------------------------------------------------------------------|
|------------------------------------------------------------------------------------|
|-0-0-0-0-0~~~----------------------------3-3-3-3-3~~~-------------------------------|
|-0-0-0-0-0~~~----------------------------3-3-3-3-3~~~-------------------------------|
  . . . .                                 . . . . 

Guitar II
|------------------------------------------------------------------------------------|
|------------------------------------------------------------------------------------|
|--10-----10--------12-------12-----------10------10----------12-------12------------|
|-----12-----12--------12-------12-----------10------10---------10-------10----------|
|------------------------------------------------------------------------------------|
|------------------------------------------------------------------------------------|


Guitar I
|------------------------------------------------------------------------------------|
|------------------------------------------------------------------------------------|
|------------------------------------------------------------------------------------|
|-------------------------------------------------------------5----------------------|
|-0-0-0-0-0~~~----------------------------3-3-3-3-3~~~--------3----------------------|
|-0-0-0-0-0~~~----------------------------3-3-3-3-3~~~-------------------------------|
  . . . .                                 . . . . 

Guitar II
|-------------------------------------------------------------------------------------------|
|----------------------------------------------------------------------8---------8----------|
|--10-----10--------12-------12-----------10------10---------------10---10---10---10---10---|
|-----12-----12--------12-------12-----------10------10-------10----10---10---10---10---10--|
|------------------------------------------------------------8--------8---------8-----------|
|-------------------------------------------------------------------------------------------|


CHORUS 

Guitar I
|------------------------------------------------------------------------------------|
|------------------------------------------------------------------------------------|
|------------------------------------------------------------------------------------|
|---------------------------------------------------------------------------------2X-|
|-0-0-0-0-0-0-0-0---10-10-10-10-10-10-10-10---3-3-3-3-3-3-3-3---3-3-3-3-3-3-3-3------|
|-0-0-0-0-0-0-0-0---10-10-10-10-10-10-10-10---3-3-3-3-3-3-3-3---2-2-2-2-2-2-2-2------|

Guitar II
|------------------------------------------------------------------------------------|
|------------------------------------------------------------------------------------|
|--10-----10---------12----------12-----------10------10--------12-------12----------|
|-----12-----12----------12----------12---------10------10--------10-------10-----2X-|
|------------------------------------------------------------------------------------|
|------------------------------------------------------------------------------------|


BREAK

Guitar I
|----------------------------------------------------------------------------------------
|----------------------------------------------------------------------------------------
|----------------------------------------------------------------------------------------
|----------------------------------------------------------------------------------------
|-0---0---0---y---y---y---0-0-y-0-0---0---y---y---y---y---0-0-0-0-0---0---0---y---y---y--
|-0---0---0---y---y---y---0-0-y-0-0---0---y---y---y---y---0-0-0-0-0---0---0---y---y---y--
. . . . . . . . . . . . . . . . . . . . . . . . . . . . . . . . . . . . . . . . . . . . .

Guitar II
|-----------------------------------------------------------------------------------------
|-----------------------------------------------------------------------------------------
|-10-------------10--------------12--------------12--------------10--------------10-------
|---------12--------------12--------------12--------------12-------------10---------------
|-----------------------------------------------------------------------------------------
|-----------------------------------------------------------------------------------------


Guitar I
|----------------------------------------------------------------------------------------
|----------------------------------------------------------------------------------------
|----------------------------------------------------------------------------------------
|----------------------------------------------------------------------------------------
|-0-0-y-0-0---0---y---y-------------------0---0---0---y---y---y---0-0-y-0-0---0---y---y--
|-0-0-y-0-0---0---y---y---0---3---0---3---0---0---0---y---y---y---0-0-y-0-0---0---y---y--
. . . . . . . . . . . .                   . . . . . . . . . . . . . . . . . . . . . . . .

Guitar II
|----------------------------------------------------------------------------------------
|----------------------------------------------------------------------------------------
|---------12-------------12---------------10-------------10--------------12--------------
|-10--------------10--------------10--------------12-------------12--------------12------
|----------------------------------------------------------------------------------------
|----------------------------------------------------------------------------------------


Guitar I
--------------------------------------------------------|
--------------------------------------------------------|
--------------------------------------------------------|
--------------------------------------------------------|
-y---y---0-0-0-0-0---0---0---y---y---y---0-0-y-0-0------|
-y---y---0-0-0-0-0---0---0---y---y---y---0-0-y-0-0------|
. . . . . . . . . . . . . . . . . . . . . . . 

Guitar I
--------------------------------------------------------|
--------------------------------------------------------|
-12-------------10--------------12----------------------|
---------12--------------10--------------10-------------|
--------------------------------------------------------|
--------------------------------------------------------|


VERSE II

Guitar I
|------------------------------------------------------------------------------------|
|------------------------------------------------------------------------------------|
|------------------------------------------------------------------------------------|
|---------------------------------------------------------------------------------2X-|
|-0-0-0-0-0-0-0-0---10-10-10-10-10-10-10-10---3-3-3-3-3-3-3-3---3-3-3-3-3-3-3-3------|
|-0-0-0-0-0-0-0-0---10-10-10-10-10-10-10-10---3-3-3-3-3-3-3-3---2-2-2-2-2-2-2-2------|
. . . . . . . . . . . . . . . . . . . . . . . . . . . . . . . . . . . . . . . . . . . . .

Guitar II
|------------------------------------------------------------------------------------|
|------------------------------------------------------------------------------------|
|--10-----10---------12----------12-----------10------10--------12-------12----------|
|-----12-----12----------12----------12---------10------10--------10-------10-----2X-|
|------------------------------------------------------------------------------------|
|------------------------------------------------------------------------------------|


Guitar I
|------------------------------------------------------------------------------------|
|------------------------------------------------------------------------------------|
|------------------------------------------------------------------------------------|
|---------------------------------------------------------------------------------2X-|
|-0-0-0-0-0-0-0-0---10-10-10-10-10-10-10-10---3-3-3-3-3-3-3-3---3-3-3-3-3-3-3-3------|
|-0-0-0-0-0-0-0-0---10-10-10-10-10-10-10-10---3-3-3-3-3-3-3-3---2-2-2-2-2-2-2-2------|
. . . . . . .       . . . . . . . . .         . . . . . .       . . . . . . 

Guitar II
|------------------------------------------------------------------------------------|
|------------------------------------------------------------------------------------|
|--10-----10---------12----------12-----------10------10--------12-------12----------|
|-----12-----12----------12----------12---------10------10--------10-------10-----2X-|
|------------------------------------------------------------------------------------|
|------------------------------------------------------------------------------------|


Guitar I
|----------------------------------------------------------------------------------------------|
|----------------------------------------------------------------------------------------------|
|----------------------------------------------------------------------------------------------|
|---------------------------------------------------------------5------------------------------|
|-0-0-0-0-0-0-0-0---10-10-10-10-10-10-10-10---3-3-3-3-3-3-3-3---3------------------------------|
|-0-0-0-0-0-0-0-0---10-10-10-10-10-10-10-10---3-3-3-3-3-3-3-3----------------------------------|
. . . . . . .       . . . . . . . . .         . . . . . .       

Guitar II
|----------------------------------------------------------------------------------------------|
|-------------------------------------------------------------------------8---------8----------|
|-10-----10---------12----------12------------10------10--------------10---10---10---10---10---|
|----12------12-----------12----------12----------10-----10------10----10---10---10---10---10--|
|---------------------------------------------------------------8--------8---------8-----------|
|----------------------------------------------------------------------------------------------|


CHORUS 

Guitar I
|------------------------------------------------------------------------------------|
|------------------------------------------------------------------------------------|
|------------------------------------------------------------------------------------|
|---------------------------------------------------------------------------------4X-|
|-0-0-0-0-0-0-0-0---10-10-10-10-10-10-10-10---3-3-3-3-3-3-3-3---3-3-3-3-3-3-3-3------|
|-0-0-0-0-0-0-0-0---10-10-10-10-10-10-10-10---3-3-3-3-3-3-3-3---2-2-2-2-2-2-2-2------|

Guitar II
|------------------------------------------------------------------------------------|
|------------------------------------------------------------------------------------|
|--10-----10---------12----------12-----------10------10--------12-------12----------|
|-----12-----12----------12----------12---------10------10--------10-------10-----4X-|
|------------------------------------------------------------------------------------|
|------------------------------------------------------------------------------------|


BREAK

Guitar I
|----------------------------------------------------------------------------------------
|----------------------------------------------------------------------------------------
|----------------------------------------------------------------------------------------
|----------------------------------------------------------------------------------------
|-0---0---0---y---y---y---0-0-y-0-0---0---y---y---y---y---0-0-0-0-0---0---0---y---y---y--
|-0---0---0---y---y---y---0-0-y-0-0---0---y---y---y---y---0-0-0-0-0---0---0---y---y---y--
. . . . . . . . . . . . . . . . . . . . . . . . . . . . . . . . . . . . . . . . . . . . .

Guitar II
|-----------------------------------------------------------------------------------------
|-----------------------------------------------------------------------------------------
|-10-------------10--------------12--------------12--------------10--------------10-------
|---------12--------------12--------------12--------------12-------------10---------------
|-----------------------------------------------------------------------------------------
|-----------------------------------------------------------------------------------------


Guitar I
|----------------------------------------------------------------------------------------
|----------------------------------------------------------------------------------------
|----------------------------------------------------------------------------------------
|----------------------------------------------------------------------------------------
|-0-0-y-0-0---0---y---y-------------------0---0---0---y---y---y---0-0-y-0-0---0---y---y--
|-0-0-y-0-0---0---y---y---0---3---0---3---0---0---0---y---y---y---0-0-y-0-0---0---y---y--
. . . . . . . . . . . .                   . . . . . . . . . . . . . . . . . . . . . . . .

Guitar II
|----------------------------------------------------------------------------------------
|----------------------------------------------------------------------------------------
|---------12-------------12---------------10-------------10--------------12--------------
|-10--------------10--------------10--------------12-------------12--------------12------
|----------------------------------------------------------------------------------------
|----------------------------------------------------------------------------------------


Guitar I
-------------------------------------------------------|
-------------------------------------------------------|
-------------------------------------------------------|
-------------------------------------------------------|
-y---y---0-0-0-0-0---0---0---y---y---y---0-0-y-0-0-----|
-y---y---0-0-0-0-0---0---0---y---y---y---0-0-y-0-0-----|
. . . . . . . . . . . . . . . . . . . . . . . 

Guitar I
-------------------------------------------------------|
-------------------------------------------------------|
-12-------------10--------------12---------------------|
---------12--------------10--------------10------------|
-------------------------------------------------------|
-------------------------------------------------------|


SOLO

Guitar I
|--------------------------------------------------------------------------------------------|
|--------------------------------------------------------------------------------------------|
|--------------------------------------------------------------------------------------------|
|--------------------------------------------------------------------------------------------|
|---------0-0-0-0-0-0-0-0---10-10-10-10-10-10-10-10---3-3-3-3-3-3-3-3---3-3-3-3-3-3-3-3------|
|---------0-0-0-0-0-0-0-0---10-10-10-10-10-10-10-10---3-3-3-3-3-3-3-3---2-2-2-2-2-2-2-2------|

Guitar II
|---------6-6-6-5-----------6--6--6--5----------------6-5-5-8---5-5-5---6-5-5-8--------------|
|-5-6-6-------------6-6-6------------------6--6--6--------------------------------5-6-6------|
|--------------------------------------------------------------------------------------------|
|--------------------------------------------------------------------------------------------|
|--------------------------------------------------------------------------------------------|
|--------------------------------------------------------------------------------------------|


Guitar I
|--------------------------------------------------------------------------------------------|
|--------------------------------------------------------------------------------------------|
|--------------------------------------------------------------------------------------------|
|--------------------------------------------------------------------------------------------|
|-0-0-0-0-0-0-0-0---10-10-10-10-10-10-10-10---3-3-3-3-3-3-3-3---3-3-3-3-3-3-3-3--------------|
|-0-0-0-0-0-0-0-0---10-10-10-10-10-10-10-10---3-3-3-3-3-3-3-3---2-2-2-2-2-2-2-2--------------|

Guitar II
|-6-6-6-5-----------6--6--6--5----------------6-5-5-8---5-5-5---6-5-5-8-----5----------------|
|-----------6-6-6------------------6--6--6--------------------------------6---6-ring out-----|
|--------------------------------------------------------------------------------------------|
|--------------------------------------------------------------------------------------------|
|--------------------------------------------------------------------------------------------|
|--------------------------------------------------------------------------------------------|


Guitar I
|---------|-------|-------|-------|----------|----------|----------|----------|----------|
|---------|-------|-------|-------|----------|----------|----------|----------|----------|
|---------|-------|-------|-------|----------|----------|----------|----------|----------|
|---------|-------|-------|-------|----------|----------|----------|----------|----------|
|-0~~~~~~~|~~~~~~~|~~~~~~~|~~~~~~~|---mute---|---mute---|---mute---|---mute---|---mute---|
|-0~~~~~~~|~~~~~~~|~~~~~~~|~~~~~~~|----------|----------|----------|----------|----------|

Guitar II
|---------|-------|-------|-------|--------|--------|--------|-------------|--------------|
|---------|-------|-------|-------|--------|--------|--------|-------------|--------------|
|---------|-------|-------|-------|--------|--------|--------|-12---12-----|-12----12-----|
|---------|-------|-------|-------|--------|--------|--------|---10----10--|----10----10--|
|---------|--mute-|-mute--|--mute-|--mute--|--mute--|--mute--|-------------|--------------|
|---------|-------|-------|-------|--------|--------|--------|-------------|--------------|


CHORUS 

Guitar I
|-----------------|-------------------------------------------------------------------|
|-----------------|-------------------------------------------------------------------|
|-----------------|-------------------------------------------------------------------|
|-----------------|-------------------------------------------------------------------|
|------mute-------|--10-10-10-10-10-10-10-10---3-3-3-3-3-3-3-3---3-3-3-3-3-3-3-3------|
|------mute-------|--10-10-10-10-10-10-10-10---3-3-3-3-3-3-3-3---2-2-2-2-2-2-2-2------|

Guitar II
|------------------------------------------------------------------------------------|
|------------------------------------------------------------------------------------|
|--10-----10---------12----------12-----------10------10--------12-------12----------|
|-----12-----12----------12----------12---------10------10--------10-------10--------|
|------------------------------------------------------------------------------------|
|------------------------------------------------------------------------------------|


CHORUS 

Guitar I
|------------------------------------------------------------------------------------|
|------------------------------------------------------------------------------------|
|------------------------------------------------------------------------------------|
|---------------------------------------------------------------------------------5X-|
|-0-0-0-0-0-0-0-0---10-10-10-10-10-10-10-10---3-3-3-3-3-3-3-3---3-3-3-3-3-3-3-3------|
|-0-0-0-0-0-0-0-0---10-10-10-10-10-10-10-10---3-3-3-3-3-3-3-3---2-2-2-2-2-2-2-2------|

Guitar II
|------------------------------------------------------------------------------------|
|------------------------------------------------------------------------------------|
|--10-----10---------12----------12-----------10------10--------12-------12----------|
|-----12-----12----------12----------12---------10------10--------10-------10-----5X-|
|------------------------------------------------------------------------------------|
|------------------------------------------------------------------------------------|


Outro 

Guitar I
|--------------------------------------------------------------------------------------------|
|--------------------------------------------------------------------------------------------|
|--------------------------------------------------------------------------------------------|
|--------------------------------------------------------------------------------------------|
|---------0-0-0-0-0-0-0-0---10-10-10-10-10-10-10-10---3-3-3-3-3-3-3-3---3-3-3-3-3-3-3-3------|
|---------0-0-0-0-0-0-0-0---10-10-10-10-10-10-10-10---3-3-3-3-3-3-3-3---2-2-2-2-2-2-2-2------|

Guitar II
|---------6-6-6-5-----------6--6--6--5----------------6-5-5-8---5-5-5---6-5-5-8--------------|
|-5-6-6-------------6-6-6------------------6--6--6--------------------------------5-6-6------|
|--------------------------------------------------------------------------------------------|
|--------------------------------------------------------------------------------------------|
|--------------------------------------------------------------------------------------------|
|--------------------------------------------------------------------------------------------|


Guitar I
|--------------------------------------------------------------------------------------------|
|--------------------------------------------------------------------------------------------|
|--------------------------------------------------------------------------------------------|
|--------------------------------------------------------------------------------------------|
|-0-0-0-0-0-0-0-0---10-10-10-10-10-10-10-10---3-3-3-3-3-3-3-3---3-3-3-3-3-3-3-3----0~~~------|
|-0-0-0-0-0-0-0-0---10-10-10-10-10-10-10-10---3-3-3-3-3-3-3-3---2-2-2-2-2-2-2-2----0~~~------|

Guitar II
|-6-6-6-5-----------6--6--6--5----------------6-5-5-8---5-5-5---6-5-5-8---5-6-5--------------|
|-----------6-6-6------------------6--6--6--------------------------------------6------------|
|--------------------------------------------------------------------------------------------|
|--------------------------------------------------------------------------------------------|
|--------------------------------------------------------------------------------------------|
|--------------------------------------------------------------------------------------------|




. = PM

Tabs by MAST
Добавлено: 11.10.2013
Другие материалы по этой песне:

Страница создана 11.06.2012
http://primanota.ru/all-ends/apologize-chords.htm
Привет, Гость.
Предлагаем пройти революционный курс по гитаре.
Подарок от PrimaNota.Ru, забирай!