PrimaNota.ru - самый крупный в мире бесплатный архив песенных текстов, аккордов, табулатур и нот


All-american Rejects - Move Along (album) - таба, видео

Регистрация Запомнить меня
Войти через:  Facebook Google Twitter Vk Yandex Mail.ru

All-american Rejects - Move Along (album) - таба, видео

Печатать
Просмотров: 227
Here is the "Move Along" album tab by The All-American Rejects (why are there two 
for this band?)

Tabbed by Kunal P. (freedoggy77@gmail.com)

I didn't write these, just borrowed them to put in album for (easier this way)

MOVE ALONG

1. Dirty Little Secret
2. Stab My Back
3. Move Along
4. It Ends Tonight
5. Change Your Mind
6. Night Drive
7. 11:11 P.M.
8. Dance Inside
9. Top Of The World
10. Straitjacket Feeling
11. I'm Waiting
12. Can't Take It

--------------------------------------------------------------

1. Dirty Little Secret

Tabbed by CheezeBiskit

Tuning: Standard

Lead Guitar: Nick Wheeler
Rhythm Guitar: Mike Kennerty


Rhythm Guitar

Intro: (x2)
e|------------------------|
B|------------------------|
G|------------------------|
D|--8-8-8-8--6-6p5-6p5----|
A|--8---8--------------6--|
E|--6---6-----------------|

Pre-Verse: (x2)
e|------------------------------------|-------------------|
B|------------------------------------|-------------------|
G|------------------------------------|-------------------|
D|--8-8-8-8-8-8-8-8--6-6-6-6-6-6-6-6--|--6-6-6-6-6-6-6-6--|
A|--8-8-8-8-8-8-8-8--6-6-6-6-6-6-6-6--|--6-6-6-6-6-6-6-6--|
E|--6-6-6-6-6-6-6-6--4-4-4-4-4-4-4-4--|--4-4-4-4-4-4-4-4--|

Verse: Lead Guitar Only

Pre-Chorus:
e|--------------------------------------------------|------------------|
B|--------------------------------------------------|------------------|
G|--5--5-5--5--5-5------------------8--8-8--8--8-8--|-1010101010101010-|
D|--5--5-5--5--5-5--5--5-5--5--5-5--8--8-8--8--8-8--|-1010101010101010-|
A|--3--3-3--3--3-3--5--5-5--5--5-5--6--6-6--6--6-6--|-8-8-8-8-8-8-8-8--|
E|------------------3--3-3--3--3-3------------------|------------------|

Chorus: (x2)
e|---------------------------------------------------------------------|
B|---------------------------------------------------------------------|
G|-------------------8-8-8-8-8-8-8-8-----------------------------------|
D|--8-8-8-8-8-8-8-8--8-8-8-8-8-8-8-8--5-5-5-5-5-5-5-5--3-3-3-3-3-3-3-3-|
A|--8-8-8-8-8-8-8-8--6-6-6-6-6-6-6-6--5-5-5-5-5-5-5-5--3-3-3-3-3-3-3-3-|
E|--6-6-6-6-6-6-6-6-------------------3-3-3-3-3-3-3-3--1-1-1-1-1-1-1-1-|

e|---------------|
B|---------------|
G|--8--8--8--8~--|
D|--8--8--8--8~--|
A|--6--6--6--6~--|
E|---------------|

Verse:
e|---------------------------------------------------------------------|
B|---------------------------------------------------------------------|
G|-------------------1010101010101010------------------8-8-8-8-8-8-8-8-|
D|--8-8-8-8-8-8-8-8--1010101010101010-5-5-5-5-5-5-5-5--8-8-8-8-8-8-8-8-|
A|--8-8-8-8-8-8-8-8--8-8-8-8-8-8-8-8--5-5-5-5-5-5-5-5--6-6-6-6-6-6-6-6-|
E|--6-6-6-6-6-6-6-6-------------------3-3-3-3-3-3-3-3------------------|
    . . . . . . . .  . . . . . . . .  . . . . . . . .  . . . . . . . .

Pre-Chorus:
e|--------------------------------------------------|------------------|
B|--------------------------------------------------|------------------|
G|--5--5-5--5--5-5------------------8--8-8--8--8-8--|-1010101010101010-|
D|--5--5-5--5--5-5--5--5-5--5--5-5--8--8-8--8--8-8--|-1010101010101010-|
A|--3--3-3--3--3-3--5--5-5--5--5-5--6--6-6--6--6-6--|-8-8-8-8-8-8-8-8--|
E|------------------3--3-3--3--3-3------------------|------------------|

Chorus: (x2)
e|---------------------------------------------------------------------|
B|---------------------------------------------------------------------|
G|-------------------8-8-8-8-8-8-8-8-----------------------------------|
D|--8-8-8-8-8-8-8-8--8-8-8-8-8-8-8-8--5-5-5-5-5-5-5-5--3-3-3-3-3-3-3-3-|
A|--8-8-8-8-8-8-8-8--6-6-6-6-6-6-6-6--5-5-5-5-5-5-5-5--3-3-3-3-3-3-3-3-|
E|--6-6-6-6-6-6-6-6-------------------3-3-3-3-3-3-3-3--1-1-1-1-1-1-1-1-|

e|---------------|
B|---------------|
G|--8--8--8--8~--|
D|--8--8--8--8~--|
A|--6--6--6--6~--|
E|---------------|

Bridge: (x2)
e|--------------------------------------------------------------------|
B|--------------------------------------------------------------------|
G|-----------------------------------8-8-8-8-8-8-8-8-8-8-8-8-8-8-8-8--|
D|--5-5-5-5-5-5-5-5-5-5-5-5-5-5-5-5--8-8-8-8-8-8-8-8-8-8-8-8-8-8-8-8--|
A|--5-5-5-5-5-5-5-5-5-5-5-5-5-5-5-5--6-6-6-6-6-6-6-6-6-6-6-6-6-6-6-6--|
E|--3-3-3-3-3-3-3-3-3-3-3-3-3-3-3-3-----------------------------------|

e|--------------------------------------------------------------------|
B|--------------------------------------------------------------------|
G|--7-7-7-7-7-7-7-7-7-7-7-7-7-7-7-7--5-5-5-5-5-5-5-5-5-5-5-5-5-5-5-5--|
D|--7-7-7-7-7-7-7-7-7-7-7-7-7-7-7-7--5-5-5-5-5-5-5-5-5-5-5-5-5-5-5-5--|
A|--5-5-5-5-5-5-5-5-5-5-5-5-5-5-5-5--3-3-3-3-3-3-3-3-3-3-3-3-3-3-3-3--|
E|--------------------------------------------------------------------|

Solo Rhythm: (x4)
e|------------------------------------|
B|------------------------------------|
G|------------------------------------|
D|--8-8-8-8-8-8-8-8--6-6-6-6-6-6-6-6--|
A|--8-8-8-8-8-8-8-8--6-6-6-6-6-6-6-6--|
E|--6-6-6-6-6-6-6-6--4-4-4-4-4-4-4-4--|

Interlude: Play On 2nd Time
e|----------------------------------------------------------|
B|----------------------------------------------------------|
G|---------------8-8-8-8-8-8--------------------------------|
D|--8-8-8-8-8-8--8-8-8-8-8-8--5-5-5-5-5-5--3-3-3-3-3-3-3-3--|
A|--8-8-8-8-8-8--6-6-6-6-6-6--5-5-5-5-5-5--3-3-3-3-3-3-3-3--|
E|--6-6-6-6-6-6---------------3-3-3-3-3-3--1-1-1-1-1-1-1-1--|
    . . . . . .  . . . . . .  . . . . . .  . . . . .

Chorus: (x2)
e|---------------------------------------------------------------------|
B|---------------------------------------------------------------------|
G|-------------------8-8-8-8-8-8-8-8-----------------------------------|
D|--8-8-8-8-8-8-8-8--8-8-8-8-8-8-8-8--5-5-5-5-5-5-5-5--3-3-3-3-3-3-3-3-|
A|--8-8-8-8-8-8-8-8--6-6-6-6-6-6-6-6--5-5-5-5-5-5-5-5--3-3-3-3-3-3-3-3-|
E|--6-6-6-6-6-6-6-6-------------------3-3-3-3-3-3-3-3--1-1-1-1-1-1-1-1-|

e|-----------------------------------------------------------------|
B|-----------------------------------------------------------------|
G|--8-8-8-8-8-8-8--1010101010101010--12-12-12-12-12-12-12-12--13~--|
D|--8-8-8-8-8-8-8--1010101010101010--12-12-12-12-12-12-12-12--13~--|
A|--6-6-6-6-6-6-6--8-8-8-8-8-8-8-8---10-10-10-10-10-10-10-10--11~--|
E|-----------------------------------------------------------------|

Outro:
e|----------------------------------------|
B|----------------------------------------|
G|----------------------------------------|
D|--8-8-8-8-8-8-8-8--6--65-65--3~~~~------|
A|--8-8-8-8-8-8-8-8--6--65-65--3~~~~------|
E|--6-6-6-6-6-6-6-6--4--43-43--1~~~~------|


Lead Guitar

Intro:
e|---------------------------------|
B|-----------------9-9p8-9p8-------|
G|---------------------------8-----|
D|--8--8----8--8-------------------|
A|--8--8----8--8-------------------|
E|--6--6----6--6-------------------|

Lead Riff: (x2)
e|--------------------------|--------------------|
B|----11---11--9-9p8-9p8----|--11--9p8-9p8-------|
G|-----------------------8--|--------------8-----|
D|--8----8------------------|--------------------|
A|--------------------------|--------------------|
E|--------------------------|--------------------|

Verse: (x2)
e|---------------------------------------------------------------------|
B|---------------------------------------------------------------------|
G|---------------------------------------------------------------------|
D|---------------------------------------------------------------------|
A|-------------------8-8-8-8-8-8-8-8-------------------6-6-6-6-6-6-6-6-|
E|--6-6-6-6-6-6-6-6-------------------3-3-3-3-3-3-3-3------------------|

Pre-Chorus:
e|--------------------------------------------------|------------------|
B|--------------------------------------------------|------------------|
G|--5--5-5--5--5-5------------------8--8-8--8--8-8--|-1010101010101010-|
D|--5--5-5--5--5-5--5--5-5--5--5-5--8--8-8--8--8-8--|-1010101010101010-|
A|--3--3-3--3--3-3--5--5-5--5--5-5--6--6-6--6--6-6--|-8-8-8-8-8-8-8-8--|
E|------------------3--3-3--3--3-3------------------|------------------|

Chorus: (x2)
e|---------------------------------------------------------------------|
B|---------------------------------------------------------------------|
G|-------------------8-8-8-8-8-8-8-8-----------------------------------|
D|--8-8-8-8-8-8-8-8--8-8-8-8-8-8-8-8--5-5-5-5-5-5-5-5--3-3-3-3-3-3-3-3-|
A|--8-8-8-8-8-8-8-8--6-6-6-6-6-6-6-6--5-5-5-5-5-5-5-5--3-3-3-3-3-3-3-3-|
E|--6-6-6-6-6-6-6-6-------------------3-3-3-3-3-3-3-3--1-1-1-1-1-1-1-1-|

e|---------------|
B|---------------|
G|--8--8--8--8~--|
D|--8--8--8--8~--|
A|--6--6--6--6~--|
E|---------------|

Verse: Play with some Effects, Figure out Strumming (x2)
e|----|----|----|---|
B|-11-|-10-|-11-|-8-|
G|----|----|----|---|
D|----|----|----|---|
A|----|----|----|---|
E|----|----|----|---|

Pre-Chorus:
e|--------------------------------------------------|------------------|
B|--------------------------------------------------|------------------|
G|--5--5-5--5--5-5------------------8--8-8--8--8-8--|-1010101010101010-|
D|--5--5-5--5--5-5--5--5-5--5--5-5--8--8-8--8--8-8--|-1010101010101010-|
A|--3--3-3--3--3-3--5--5-5--5--5-5--6--6-6--6--6-6--|-8-8-8-8-8-8-8-8--|
E|------------------3--3-3--3--3-3------------------|------------------|

Chorus: (x2)
e|---------------------------------------------------------------------|
B|---------------------------------------------------------------------|
G|-------------------8-8-8-8-8-8-8-8-----------------------------------|
D|--8-8-8-8-8-8-8-8--8-8-8-8-8-8-8-8--5-5-5-5-5-5-5-5--3-3-3-3-3-3-3-3-|
A|--8-8-8-8-8-8-8-8--6-6-6-6-6-6-6-6--5-5-5-5-5-5-5-5--3-3-3-3-3-3-3-3-|
E|--6-6-6-6-6-6-6-6-------------------3-3-3-3-3-3-3-3--1-1-1-1-1-1-1-1-|

e|---------------|
B|---------------|
G|--8--8--8--8~--|
D|--8--8--8--8~--|
A|--6--6--6--6~--|
E|---------------|

Bridge: (x2)
e|--------------------------------------------------------------------|
B|--------------------------------------------------------------------|
G|-----------------------------------8-8-8-8-8-8-8-8-8-8-8-8-8-8-8-8--|
D|--5-5-5-5-5-5-5-5-5-5-5-5-5-5-5-5--8-8-8-8-8-8-8-8-8-8-8-8-8-8-8-8--|
A|--5-5-5-5-5-5-5-5-5-5-5-5-5-5-5-5--6-6-6-6-6-6-6-6-6-6-6-6-6-6-6-6--|
E|--3-3-3-3-3-3-3-3-3-3-3-3-3-3-3-3-----------------------------------|

e|--------------------------------------------------------------------|
B|--------------------------------------------------------------------|
G|--7-7-7-7-7-7-7-7-7-7-7-7-7-7-7-7--5-5-5-5-5-5-5-5-5-5-5-5-5-5-5-5--|
D|--7-7-7-7-7-7-7-7-7-7-7-7-7-7-7-7--5-5-5-5-5-5-5-5-5-5-5-5-5-5-5-5--|
A|--5-5-5-5-5-5-5-5-5-5-5-5-5-5-5-5--3-3-3-3-3-3-3-3-3-3-3-3-3-3-3-3--|
E|--------------------------------------------------------------------|

Solo:
e|---------------------------------------------------------|
B|----11---11--9-9p8-9p8------11---11--9-9p8-------13(15)--|
G|-----------------------8-------------------10/12---------|
D|--8----8------------------8----8-------------------------|
A|---------------------------------------------------------|
E|---------------------------------------------------------|

e|-----13-----13--11-11p10-11p10--------13-----13--11-11p10-11p10--------|
B|--11-----11--------------------11~-11-----11--------------------11-----|
G|-----------------------------------------------------------------------|
D|-----------------------------------------------------------------------|
A|-----------------------------------------------------------------------|
E|-----------------------------------------------------------------------|

Interlude: (x2)
e|---------------------------------------------------------------------|
B|---------------------------------------------------------------------|
G|---------------------------------------------------------------------|
D|---------------------------------------------------------------------|
A|-------------------6-6-6-6-6-6-6-6-----------------------------------|
E|--6-6-6-6-6-6-6-6-------------------3-3-3-3-3-3-3-3--1-1-1-1-1-1-1-1-|

Chorus: (x2)
e|---------------------------------------------------------------------|
B|---------------------------------------------------------------------|
G|-------------------8-8-8-8-8-8-8-8-----------------------------------|
D|--8-8-8-8-8-8-8-8--8-8-8-8-8-8-8-8--5-5-5-5-5-5-5-5--3-3-3-3-3-3-3-3-|
A|--8-8-8-8-8-8-8-8--6-6-6-6-6-6-6-6--5-5-5-5-5-5-5-5--3-3-3-3-3-3-3-3-|
E|--6-6-6-6-6-6-6-6-------------------3-3-3-3-3-3-3-3--1-1-1-1-1-1-1-1-|

e|-----------------------------------------------------------------|
B|-----------------------------------------------------------------|
G|--8-8-8-8-8-8-8--1010101010101010--12-12-12-12-12-12-12-12--13~--|
D|--8-8-8-8-8-8-8--1010101010101010--12-12-12-12-12-12-12-12--13~--|
A|--6-6-6-6-6-6-6--8-8-8-8-8-8-8-8---10-10-10-10-10-10-10-10--11~--|
E|-----------------------------------------------------------------|

Outro:
e|------------------------------------------------------|
B|----11---11--9-9p8-9p8------11---11--9-9p8-9p8--------|
G|-----------------------8-----------------------10~~~~~|
D|--8----8------------------8----8----------------------|
A|------------------------------------------------------|
E|------------------------------------------------------|

-----------------------------------------------------------------------

2. Stab My Back

Tabbed by Unregistered

Intro
e|-----------------------------------------------------------------------|
B|-------------------------------3-3-3-3-3----3-3-3----------------------|
G|-4-4-4--4--4----4-4-4-5-4-4----4-4-4-4-4----------5-4-4----------------|
D|-5-5-5--5--5----5-5-5-5-5-5----5-5-5-5-5-------------------------------|
A|-3-3-3--3--3----3-3-3-3-3-3----x-x-x-x-x-------------------------------|
E|-------------------------------3-3-3-3-3-------------------------------|

e|-----------------------------|
B|-----------------------------|
G|-4-4-4--4--4----4-4-4-5-4-4--|
D|-5-5-5--5--5----5-5-5-5-5-5--|
A|-3-3-3--3--3----3-3-3-3-3-3--|
E|-----------------------------|

Verse:
e|-----------------------------------------------------------------|
B|-----------------------------------------------------------------|
G|-----------------7-7-7-7-7-7-7-7-5-5-5-5-5-5-5-5-----------------|
D|-5-5-5-5-5-5-5-5-7-7-7-7-7-7-7-7-5-5-5-5-5-5-5-5-2-2-2-2-2-2-2-2-| play 2X
A|-5-5-5-5-5-5-5-5-5-5-5-5-5-5-5-5-3-3-3-3-3-3-3-3-2-2-2-2-2-2-2-2-|
E|-3-3-3-3-3-3-3-3---------------------------------0-0-0-0-0-0-0-0-|

e|----------------------------|
B|-------1----1------0-----0--|
G|-----0----0------2----2-----|
D|---2-----------0------------|
A|-0-----------2--------------|
E|----------------------------|

Chorus:
e|-----------------------------------------------------------------|
B|-----------------------------------------------------------------|
G|-5-5-5-5-5-5-5-5--2-2-2-2-2-2-2-2--------------------------------|
D|-5-5-5-5-5-5-5-5--2-2-2-2-2-2-2-2---2-2-2-2--2--2---2-2-2-2--2--2| 2x
A|-3-3-3-3-3-3-3-3--0-0-0-0-0-0-0-0---2-2-2-2--2--2---2-2-2-2--2--2|
E|------------------------------------0-0-0-0--0--0---0-0-0-0--0--0|

e|-----------------------------------------------------------------------|
B|-----------------------------------------------------------------------|
G|--5-5-5-5-5-5-5-5--2-2-2-2-2-2-2-2-------------------------------------|
D|--5-5-5-5-5-5-5-5--2-2-2-2-2-2-2-2---2-2-2-2-2-2-2-2--5-5-5-5-5-5-5-5--|2x
A|--3-3-3-3-3-3-3-3--0-0-0-0-0-0-0-0---2-2-2-2-2-2-2-2--5-5-5-5-5-5-5-5--|
E|-------------------------------------0-0-0-0-0-0-0-0--3-3-3-3-3-3-3-3--|

Intro:
e|-----------------------------|
B|-----------------------------|
G|-4-4-4--4--4----4-4-4-5-4-4--|
D|-5-5-5--5--5----5-5-5-5-5-5--|
A|-3-3-3--3--3----3-3-3-3-3-3--|
E|-----------------------------|

Verse:
e|-----------------------------------------------------------------|
B|-----------------------------------------------------------------|
G|-----------------7-7-7-7-7-7-7-7-5-5-5-5-5-5-5-5-----------------|
D|-5-5-5-5-5-5-5-5-7-7-7-7-7-7-7-7-5-5-5-5-5-5-5-5-2-2-2-2-2-2-2-2-| 2x
A|-5-5-5-5-5-5-5-5-5-5-5-5-5-5-5-5-3-3-3-3-3-3-3-3-2-2-2-2-2-2-2-2-|
E|-3-3-3-3-3-3-3-3---------------------------------0-0-0-0-0-0-0-0-|

e|----------------------------|
B|-------1----1------0-----0--|
G|-----0----0------2----2-----|
D|---2-----------0------------|
A|-0-----------2--------------|
E|----------------------------|

Chorus:
e|-----------------------------------------------------------------|
B|-----------------------------------------------------------------|
G|-5-5-5-5-5-5-5-5--2-2-2-2-2-2-2-2--------------------------------|
D|-5-5-5-5-5-5-5-5--2-2-2-2-2-2-2-2---2-2-2-2--2--2---2-2-2-2--2--2| 2x
A|-3-3-3-3-3-3-3-3--0-0-0-0-0-0-0-0---2-2-2-2--2--2---2-2-2-2--2--2|
E|------------------------------------0-0-0-0--0--0---0-0-0-0--0--0|

Guitar 1: plays while solo
e|-----------------------------------------------------------------------|
B|-----------------------------------------------------------------------|
G|--5-5-5-5-5-5-5-5--2-2-2-2-2-2-2-2-------------------------------------|
D|--5-5-5-5-5-5-5-5--2-2-2-2-2-2-2-2---2-2-2-2-2-2-2-2--5-5-5-5-5-5-5-5--|5x
A|--3-3-3-3-3-3-3-3--0-0-0-0-0-0-0-0---2-2-2-2-2-2-2-2--5-5-5-5-5-5-5-5--|
E|-------------------------------------0-0-0-0-0-0-0-0--3-3-3-3-3-3-3-3--|


Guitar 2 SOLO:
e|-15--14--------------------14--15--14------21--20--17-15-14----15--14-------15--17--14--15--17--15--14------|
B|---------15-------------15-------------15------------------15---------15------------------------------15--17|
G|------------14--16--16---------------------------------------------------14---------------------------------|
D|------------------------------------------------------------------------------------------------------------|
A|------------------------------------------------------------------------------------------------------------|
E|------------------------------------------------------------------------------------------------------------|
Break Down:
e|----------------------------------------|
B|----------------------------------------|
G|-----------------7-7--5-5-5-5-5-5--7-7--|   play 2X
D|--2-2-2-2-2-2-2--7-7--5-5-5-5-5-5--7-7--|
A|--2-2-2-2-2-2-2--5-5--3-3-3-3-3-3--5-5--|
E|--0-0-0-0-0-0-0--5-5--3-3-3-3-3-3--5-5--|

Intro:
e|-----------------------------|
B|-----------------------------|
G|-4-4-4--4--4----4-4-4-5-4-4--|
D|-5-5-5--5--5----5-5-5-5-5-5--|
A|-3-3-3--3--3----3-3-3-3-3-3--|
E|-----------------------------|

Chorus:
e|------------------------------------------------------------------|
B|------------------------------------------------------------------|
G|--5-5-5-5-5-5-5-5--2-2-2-2-2-2-2-2--------------------------------|
D|--5-5-5-5-5-5-5-5--2-2-2-2-2-2-2-2---2-2-2-2--2--2---2-2-2-2--2--2|
A|--3-3-3-3-3-3-3-3--0-0-0-0-0-0-0-0---2-2-2-2--2--2---2-2-2-2--2--2|
E|-------------------------------------0-0-0-0--0--0---0-0-0-0--0--0|

Corus:
e|-----------------------------------------------------------------------|
B|-----------------------------------------------------------------------|
G|--5-5-5-5-5-5-5-5--2-2-2-2-2-2-2-2-------------------------------------|
D|--5-5-5-5-5-5-5-5--2-2-2-2-2-2-2-2---2-2-2-2-2-2-2-2--5-5-5-5-5-5-5-5--|
A|--3-3-3-3-3-3-3-3--0-0-0-0-0-0-0-0---2-2-2-2-2-2-2-2--5-5-5-5-5-5-5-5--|
E|-------------------------------------0-0-0-0-0-0-0-0--3-3-3-3-3-3-3-3--|

             ^^PLAY THE SOLO OVER THIS AGAIN^^


Intro:
e|-----------------------------|
B|-----------------------------|
G|-4-4-4--4--4----4-4-4-5-4-4--|
D|-5-5-5--5--5----5-5-5-5-5-5--|
A|-3-3-3--3--3----3-3-3-3-3-3--|
E|-----------------------------|

----------------------------------------------------------------------

3. Move Along

Transcribed by ODC

 Words and Music by All-American Rejects
Arranged by All-American Rejects


Gtr I (E A D G B E) - 'Distortion one'
Gtr II (E A D G B E) - 'Distorted Guitar 2'
Gtr III (E A D G B E) - 'Piano'


 Intro
  Fast Rock Q=120(8=s8)
 4/4
  Gtrs I, II
  Wx4
|--------|
|--------|
|--------|
|--------|
|--------|
|--------|


  Eb                                Bb
 4/4
  Gtrs I, II
  S S S S S S S S S S S S S S S S   S S S S S S S S S S S S S S S S
|---------------------------------|-6-6---6-6---6-6---6-6---6-6-6-6-|
|-8-8---8-8---8-8---8-8---8-8-8-8-|-6-6---6-6---6-6---6-6---6-6-6-6-|
|-8-8---8-8---8-8---8-8---8-8-8-8-|-7-7---7-7---7-7---7-7---7-7-7-7-|
|-8-8---8-8---8-8---8-8---8-8-8-8-|-8-8---8-8---8-8---8-8---8-8-8-8-|
|-6-6---6-6---6-6---6-6---6-6-6-6-|-8-8---8-8---8-8---8-8---8-8-8-8-|
|---------------------------------|-6-6---6-6---6-6---6-6---6-6-6-6-|


  Cm
   S  S S  S  S S  S  S S  S  S S  S  S  S  S
|--8--8----8--8----8--8----8--8----8--8--8--8-|
|--8--8----8--8----8--8----8--8----8--8--8--8-|
|--8--8----8--8----8--8----8--8----8--8--8--8-|
|-10-10---10-10---10-10---10-10---10-10-10-10-|
|-10-10---10-10---10-10---10-10---10-10-10-10-|
|--8--8----8--8----8--8----8--8----8--8--8--8-|


  Ab
  S S S S S S S S S S S S S S S S
|-4-4---4-4---4-4---4-4---4-4-4-4--|
|-4-4---4-4---4-4---4-4---4-4-4-4--|
|-5-5---5-5---5-5---5-5---5-5-5-5--|
|-6-6---6-6---6-6---6-6---6-6-6-6--|
|-6-6---6-6---6-6---6-6---6-6-6-6--|
|-4-4---4-4---4-4---4-4---4-4-4-4--|


   Verse 1
    Eb                                Bb
    S S S S S S S S S S S S S S S S   S S S S S S S S S S S S S S S S
||----------------------------------|-6-6---6-6---6-6---6-6---6-6-6-6-|
||o-8-8---8-8---8-8---8-8---8-8-8-8-|-6-6---6-6---6-6---6-6---6-6-6-6-|
||--8-8---8-8---8-8---8-8---8-8-8-8-|-7-7---7-7---7-7---7-7---7-7-7-7-|
||--8-8---8-8---8-8---8-8---8-8-8-8-|-8-8---8-8---8-8---8-8---8-8-8-8-|
||o-6-6---6-6---6-6---6-6---6-6-6-6-|-8-8---8-8---8-8---8-8---8-8-8-8-|
||----------------------------------|-6-6---6-6---6-6---6-6---6-6-6-6-|


  Cm
   S  S S  S  S S  S  S S  S  S S  S  S  S  S
|--8--8----8--8----8--8----8--8----8--8--8--8-|
|--8--8----8--8----8--8----8--8----8--8--8--8-|
|--8--8----8--8----8--8----8--8----8--8--8--8-|
|-10-10---10-10---10-10---10-10---10-10-10-10-|
|-10-10---10-10---10-10---10-10---10-10-10-10-|
|--8--8----8--8----8--8----8--8----8--8--8--8-|


  Ab
  S S S S S S S S S S S S S S S S
|-4-4---4-4---4-4---4-4---4-4-4-4---||
|-4-4---4-4---4-4---4-4---4-4-4-4--o||
|-5-5---5-5---5-5---5-5---5-5-5-5---||
|-6-6---6-6---6-6---6-6---6-6-6-6---||
|-6-6---6-6---6-6---6-6---6-6-6-6--o||
|-4-4---4-4---4-4---4-4---4-4-4-4---||


 Pre-Chorus
  Wx4
|--------|
|--------|
|--------|
|--------|
|--------|
|--------|


   Chorus
    Eb
    Gtr I
    S S S S S S S S S S S S  S  S  S  S
||--------------------------------------|
||o-8-8-8-8-8-8-8-8-8-8-8-8--8--8--8--8-|
||--8-8-8-8-8-8-8-8-8-8-8-8--8--8--8--8-|
||--8-8-8-8-8-8-8-8-8-8-8-8--8--8--8--8-|
||o-6-6-6-6-6-6-6-6-6-6-6-6--6--6--6--6-|
||--------------------------------------|
|
|   Gtr II
|   S S S S S S S S S S S S  S  S  S  S
||--------------------------------------|
||o-------------------------------------|
||--8-8-8-8-8-8-8-8-8-8-8-8S10-10-10-10S|
||--------------------------------------|
||o-6-6-6-6-6-6-6-6-6-6-6-6S=8--8--8--8S|
||--------------------------------------|


  Bb
   S  S  S  S  S  S  S  S  S  S  S  S  S  S  S  S
|--6--6--6--6--6--6--6--6--6--6--6--6--6--6--6--6--|
|--6--6--6--6--6--6--6--6--6--6--6--6--6--6--6--6--|
|--7--7--7--7--7--7--7--7--7--7--7--7--7--7--7--7--|
|--8--8--8--8--8--8--8--8--8--8--8--8--8--8--8--8--|
|--8--8--8--8--8--8--8--8--8--8--8--8--8--8--8--8--|
|--6--6--6--6--6--6--6--6--6--6--6--6--6--6--6--6--|
|
|  S  S  S  S  S  S  S  S  S  S  S  S  S  S  S  S
|----------------------------------------------------|
|----------------------------------------------------|
|-12-12-12-12-12-12-12-12-12-12-12-12-12-12-12-12----|
|----------------------------------------------------|
|-10-10-10-10-10-10-10-10-10-10-10-10-10-10-10-10----|
|----------------------------------------------------|


  Cm
   S  S  S  S  S  S  S  S  S  S  S  S  S  S  S  S
|--8--8--8--8--8--8--8--8--8--8--8--8--8--8--8--8--|
|--8--8--8--8--8--8--8--8--8--8--8--8--8--8--8--8--|
|--8--8--8--8--8--8--8--8--8--8--8--8--8--8--8--8--|
|-10-10-10-10-10-10-10-10-10-10-10-10-10-10-10-10--|
|-10-10-10-10-10-10-10-10-10-10-10-10-10-10-10-10--|
|--8--8--8--8--8--8--8--8--8--8--8--8--8--8--8--8--|
|
|  S  S  S  S  S  S  S  S  S  S  S  S  S  S  S  S
|----------------------------------------------------|
|----------------------------------------------------|
|-10-10-10-10-10-10-10-10-10-10-10-10-10-10-10-10----|
|----------------------------------------------------|
|--8--8--8--8--8--8--8--8--8--8--8--8--8--8--8--8----|
|----------------------------------------------------|


  Ab
  S S S S S S S S S S S S S S S S
|-4-4-4-4-4-4-4-4-4-4-4-4-4-4-4-4---||
|-4-4-4-4-4-4-4-4-4-4-4-4-4-4-4-4--o||
|-5-5-5-5-5-5-5-5-5-5-5-5-5-5-5-5---||
|-6-6-6-6-6-6-6-6-6-6-6-6-6-6-6-6---||
|-6-6-6-6-6-6-6-6-6-6-6-6-6-6-6-6--o||
|-4-4-4-4-4-4-4-4-4-4-4-4-4-4-4-4---||
|
| S S S S S S S S S S S S S S S S
|-----------------------------------||
|----------------------------------o||
|-8-8-8-8-8-8-8-8-8-8-8-8-8-8-8-8---||
|-----------------------------------||
|-6-6-6-6-6-6-6-6-6-6-6-6-6-6-6-6--o||
|-----------------------------------||


 Interlude
  Eb                                Bb
  S S S S S S S S S S S S S S S S   S S S S S S S S S S S S S S S S
|---------------------------------|-6-6---6-6---6-6---6-6---6-6-6-6--|
|-8-8---8-8---8-8---8-8---8-8-8-8-|-6-6---6-6---6-6---6-6---6-6-6-6--|
|-8-8---8-8---8-8---8-8---8-8-8-8-|-7-7---7-7---7-7---7-7---7-7-7-7--|
|-8-8---8-8---8-8---8-8---8-8-8-8-|-8-8---8-8---8-8---8-8---8-8-8-8--|
|-6-6---6-6---6-6---6-6---6-6-6-6-|-8-8---8-8---8-8---8-8---8-8-8-8--|
|---------------------------------|-6-6---6-6---6-6---6-6---6-6-6-6--|


  Cm
   S  S S  S  S S  S  S S  S  S S  S  S  S  S
|--8--8----8--8----8--8----8--8----8--8--8--8-|
|--8--8----8--8----8--8----8--8----8--8--8--8-|
|--8--8----8--8----8--8----8--8----8--8--8--8-|
|-10-10---10-10---10-10---10-10---10-10-10-10-|
|-10-10---10-10---10-10---10-10---10-10-10-10-|
|--8--8----8--8----8--8----8--8----8--8--8--8-|


  Ab
  S S S S S S S S S S S S S S S S
|-4-4---4-4---4-4---4-4---4-4-4-4--|
|-4-4---4-4---4-4---4-4---4-4-4-4--|
|-5-5---5-5---5-5---5-5---5-5-5-5--|
|-6-6---6-6---6-6---6-6---6-6-6-6--|
|-6-6---6-6---6-6---6-6---6-6-6-6--|
|-4-4---4-4---4-4---4-4---4-4-4-4--|


 Verse 2
  Eb                     Bb
  S S S S S S S S H      S S S S S S S S H
|----------------------|-6-6-6-6-6------------|
|-8-8-8-8-8------------|-6-6-6-6-6------------|
|-8-8-8-8-8------------|-7-7-7-7-7------------|
|-8-8-8-8-8------------|-8-8-8-8-8------------|
|-6-6-6-6-6------------|-8-8-8-8-8------------|
|----------------------|-6-6-6-6-6------------|


  Cm
  PM-----------------------------------|
  s  s  s s  s  s s  s  s s  s  s s  s  s s
|-------------------------------------------|
|-------------------------------------------|
|-------------------------------------------|
|------10------10------10------10------10---|
|---10------10------10------10------10------|
|-8-------8-------8-------8-------8-------8-|


  Ab                                Eb
  PM--------------------------|     PM--------------------------|
  s s s s s s s s s s s s s s s s   s s s s s s s s s s s s s s s s
|---------------------------------|----------------------------------|
|---------------------------------|----------------------------------|
|---------------------------------|-----8-----8-----8-----8-----8----|
|-----6-----6-----6-----6-----6---|---8-----8-----8-----8-----8------|
|---6-----6-----6-----6-----6-----|-6-----6-----6-----6-----6-----6--|
|-4-----4-----4-----4-----4-----4-|----------------------------------|


  Bb                                Cm
  PM--------------------------|     PM-----------------------------------|
  s s s s s s s s s s s s s s s s   s  s  s s  s  s s  s  s s  s  s s  s  s s
|---------------------------------|--------------------------------------------|
|---------------------------------|--------------------------------------------|
|---------------------------------|--------------------------------------------|
|-----8-----8-----8-----8-----8---|------10------10------10------10------10----|
|---8-----8-----8-----8-----8-----|---10------10------10------10------10-------|
|-6-----6-----6-----6-----6-----6-|-8-------8-------8-------8-------8-------8--|


  Ab
  PM----------------------------|
  s s s s s s s s s s S S S S S S
|---------------------------------|
|---------------------------------|
|---------------------------------|
|-----6-----6-----6-----6-----6---|
|---6-----6-----6-----6-----6-----|
|-4-----4-----4-----4-----4-----4-|


 Pre-Chorus
  Wx4
|--------|
|--------|
|--------|
|--------|
|--------|
|--------|


   Chorus
    Eb
    S S S S S S S S S S S S  S  S  S  S
||--------------------------------------|
||o-8-8-8-8-8-8-8-8-8-8-8-8--8--8--8--8-|
||--8-8-8-8-8-8-8-8-8-8-8-8--8--8--8--8-|
||--8-8-8-8-8-8-8-8-8-8-8-8--8--8--8--8-|
||o-6-6-6-6-6-6-6-6-6-6-6-6--6--6--6--6-|
||--------------------------------------|
|
|   Gtr II
|   S S S S S S S S S S S S  S  S  S  S
||--------------------------------------|
||o-------------------------------------|
||--8-8-8-8-8-8-8-8-8-8-8-8S10-10-10-10S|
||--------------------------------------|
||o-6-6-6-6-6-6-6-6-6-6-6-6S=8--8--8--8S|
||--------------------------------------|


  Bb
   S  S  S  S  S  S  S  S  S  S  S  S  S  S  S  S
|--6--6--6--6--6--6--6--6--6--6--6--6--6--6--6--6--|
|--6--6--6--6--6--6--6--6--6--6--6--6--6--6--6--6--|
|--7--7--7--7--7--7--7--7--7--7--7--7--7--7--7--7--|
|--8--8--8--8--8--8--8--8--8--8--8--8--8--8--8--8--|
|--8--8--8--8--8--8--8--8--8--8--8--8--8--8--8--8--|
|--6--6--6--6--6--6--6--6--6--6--6--6--6--6--6--6--|
|
|  S  S  S  S  S  S  S  S  S  S  S  S  S  S  S  S
|----------------------------------------------------|
|----------------------------------------------------|
|-12-12-12-12-12-12-12-12-12-12-12-12-12-12-12-12----|
|----------------------------------------------------|
|-10-10-10-10-10-10-10-10-10-10-10-10-10-10-10-10----|
|----------------------------------------------------|


  Cm
   S  S  S  S  S  S  S  S  S  S  S  S  S  S  S  S
|--8--8--8--8--8--8--8--8--8--8--8--8--8--8--8--8--|
|--8--8--8--8--8--8--8--8--8--8--8--8--8--8--8--8--|
|--8--8--8--8--8--8--8--8--8--8--8--8--8--8--8--8--|
|-10-10-10-10-10-10-10-10-10-10-10-10-10-10-10-10--|
|-10-10-10-10-10-10-10-10-10-10-10-10-10-10-10-10--|
|--8--8--8--8--8--8--8--8--8--8--8--8--8--8--8--8--|
|
|  S  S  S  S  S  S  S  S  S  S  S  S  S  S  S  S
|----------------------------------------------------|
|----------------------------------------------------|
|-10-10-10-10-10-10-10-10-10-10-10-10-10-10-10-10----|
|----------------------------------------------------|
|--8--8--8--8--8--8--8--8--8--8--8--8--8--8--8--8----|
|----------------------------------------------------|


  Ab
  S S S S S S S S S S S S S S S S
|-4-4-4-4-4-4-4-4-4-4-4-4-4-4-4-4---||
|-4-4-4-4-4-4-4-4-4-4-4-4-4-4-4-4--o||
|-5-5-5-5-5-5-5-5-5-5-5-5-5-5-5-5---||
|-6-6-6-6-6-6-6-6-6-6-6-6-6-6-6-6---||
|-6-6-6-6-6-6-6-6-6-6-6-6-6-6-6-6--o||
|-4-4-4-4-4-4-4-4-4-4-4-4-4-4-4-4---||
|
| S S S S S S S S S S S S S S S S
|-----------------------------------||
|----------------------------------o||
|-8-8-8-8-8-8-8-8-8-8-8-8-8-8-8-8---||
|-----------------------------------||
|-6-6-6-6-6-6-6-6-6-6-6-6-6-6-6-6--o||
|-----------------------------------||


   Interlude 2
    Eb                                Bb
    Gtrs I, II
    S S S S S S S S S S S S S S S S   S S S S S S S S S S S S S S S S
||----------------------------------|-6-6---6-6---6-6---6-6---6-6-6-6-|
||o-8-8---8-8---8-8---8-8---8-8-8-8-|-6-6---6-6---6-6---6-6---6-6-6-6-|
||--8-8---8-8---8-8---8-8---8-8-8-8-|-7-7---7-7---7-7---7-7---7-7-7-7-|
||--8-8---8-8---8-8---8-8---8-8-8-8-|-8-8---8-8---8-8---8-8---8-8-8-8-|
||o-6-6---6-6---6-6---6-6---6-6-6-6-|-8-8---8-8---8-8---8-8---8-8-8-8-|
||----------------------------------|-6-6---6-6---6-6---6-6---6-6-6-6-|


  Cm
  Gtrs I, II
   S  S S  S  S S  S  S S  S  S S  S  S  S  S
|--8--8----8--8----8--8----8--8----8--8--8--8-|
|--8--8----8--8----8--8----8--8----8--8--8--8-|
|--8--8----8--8----8--8----8--8----8--8--8--8-|
|-10-10---10-10---10-10---10-10---10-10-10-10-|
|-10-10---10-10---10-10---10-10---10-10-10-10-|
|--8--8----8--8----8--8----8--8----8--8--8--8-|


  Ab
  S S S S S S S S S S S S S S S S
|-4-4---4-4---4-4---4-4---4-4-4-4---||
|-4-4---4-4---4-4---4-4---4-4-4-4--o||
|-5-5---5-5---5-5---5-5---5-5-5-5---||
|-6-6---6-6---6-6---6-6---6-6-6-6---||
|-6-6---6-6---6-6---6-6---6-6-6-6--o||
|-4-4---4-4---4-4---4-4---4-4-4-4---||


 Breakdown
  Ab
  Gtr I
  W          +W           W             +W
|----------|------------|-------------|-------------------|
|----------|------------|-------------|-------------------|
|----------|------------|-------------|-------------------|
|-6--------|-(6)--------|-6-----------|-(6)---------------|
|-6--------|-(6)--------|-6-----------|-(6)---------------|
|-4--------|-(4)--------|-4-----------|-(4)---------------|
|
| Gtr II
|                                   PM------------|
| W          +W           H..       E    E  E E E E Q.
|----------|------------|-------------|---------------------|
|----------|------------|-------------|---------------------|
|----------|------------|-------------|---------------------|
|-6--------|-(6)--------|-6---------6-|--6--6-6-6-6-6-------|
|-6--------|-(6)--------|-6---------6-|--6--6-6-6-6-6-------|
|-4--------|-(4)--------|-4---------4-|--4--4-4-4-4-4-------|


 Bridge
  Eb           Bb           Cm             Ab
  Gtr III
  H.      Q    H.      Q     H.       Q    W
|------------|-6-------6--|--8--------8--|-4----|
|-8-------8--|-6-------6--|--8--------8--|-4----|
|-8-------8--|-7-------7--|--8--------8--|-5----|
|-8-------8--|-8-------8--|-10-------10--|-6----|
|-6-------6--|-8-------8--|-10-------10--|-6----|
|------------|-6-------6--|--8--------8--|-4----|


  Eb           Bb           Cm             Ab
  H.      Q    H.      Q     H.       Q    W
|------------|-6-------6--|--8--------8--|-4-----------|
|-8-------8--|-6-------6--|--8--------8--|-4-----------|
|-8-------8--|-7-------7--|--8--------8--|-5-----------|
|-8-------8--|-8-------8--|-10-------10--|-6-----------|
|-6-------6--|-8-------8--|-10-------10--|-6-----------|
|------------|-6-------6--|--8--------8--|-4-----------|
|
|                                               Gtrs I, II
| W            W             W             H     H
|------------|------------|--------------|---------------|
|------------|------------|--------------|---------------|
|------------|------------|--------------|------12-------|
|------------|------------|--------------|---------------|
|------------|------------|--------------|------10-------|
|------------|------------|--------------|---------------|


   Chorus
    Eb
    Gtr I
    S S S S S S S S S S S S  S  S  S  S
||--------------------------------------|
||o-8-8-8-8-8-8-8-8-8-8-8-8--8--8--8--8-|
||--8-8-8-8-8-8-8-8-8-8-8-8--8--8--8--8-|
||--8-8-8-8-8-8-8-8-8-8-8-8--8--8--8--8-|
||o-6-6-6-6-6-6-6-6-6-6-6-6--6--6--6--6-|
||--------------------------------------|
|
|   Gtr II
|   S S S S S S S S S S S S  S  S  S  S
||--------------------------------------|
||o-------------------------------------|
||--8-8-8-8-8-8-8-8-8-8-8-8S10-10-10-10S|
||--------------------------------------|
||o-6-6-6-6-6-6-6-6-6-6-6-6S=8--8--8--8S|
||--------------------------------------|
|
|   Gtr III
|   S S S S S S S S S S S S  S  S  S  S
||--------------------------------------|
||o-8-8---8-8---8-8---8-8----8--8--8--8-|
||--8-8---8-8---8-8---8-8----8--8--8--8-|
||--8-8---8-8---8-8---8-8----8--8--8--8-|
||o-6-6---6-6---6-6---6-6----6--6--6--6-|
||--------------------------------------|


  Bb
   S  S  S  S  S  S  S  S  S  S  S  S  S  S  S  S
|--6--6--6--6--6--6--6--6--6--6--6--6--6--6--6--6--|
|--6--6--6--6--6--6--6--6--6--6--6--6--6--6--6--6--|
|--7--7--7--7--7--7--7--7--7--7--7--7--7--7--7--7--|
|--8--8--8--8--8--8--8--8--8--8--8--8--8--8--8--8--|
|--8--8--8--8--8--8--8--8--8--8--8--8--8--8--8--8--|
|--6--6--6--6--6--6--6--6--6--6--6--6--6--6--6--6--|
|
|  S  S  S  S  S  S  S  S  S  S  S  S  S  S  S  S
|----------------------------------------------------|
|----------------------------------------------------|
|-12-12-12-12-12-12-12-12-12-12-12-12-12-12-12-12----|
|----------------------------------------------------|
|-10-10-10-10-10-10-10-10-10-10-10-10-10-10-10-10----|
|----------------------------------------------------|
|
|  S  S  S  S  S  S  S  S  S  S  S  S  S  S  S  S
|--6--6-----6--6-----6--6-----6--6-----6--6--6--6--|
|--6--6-----6--6-----6--6-----6--6-----6--6--6--6--|
|--7--7-----7--7-----7--7-----7--7-----7--7--7--7--|
|--8--8-----8--8-----8--8-----8--8-----8--8--8--8--|
|--8--8-----8--8-----8--8-----8--8-----8--8--8--8--|
|--6--6-----6--6-----6--6-----6--6-----6--6--6--6--|


  Cm
  Gtr I
   S  S  S  S  S  S  S  S  S  S  S  S  S  S  S  S
|--8--8--8--8--8--8--8--8--8--8--8--8--8--8--8--8--|
|--8--8--8--8--8--8--8--8--8--8--8--8--8--8--8--8--|
|--8--8--8--8--8--8--8--8--8--8--8--8--8--8--8--8--|
|-10-10-10-10-10-10-10-10-10-10-10-10-10-10-10-10--|
|-10-10-10-10-10-10-10-10-10-10-10-10-10-10-10-10--|
|--8--8--8--8--8--8--8--8--8--8--8--8--8--8--8--8--|
|
| Gtr II
|  S  S  S  S  S  S  S  S  S  S  S  S  S  S  S  S
|----------------------------------------------------|
|----------------------------------------------------|
|-10-10-10-10-10-10-10-10-10-10-10-10-10-10-10-10----|
|----------------------------------------------------|
|--8--8--8--8--8--8--8--8--8--8--8--8--8--8--8--8----|
|----------------------------------------------------|
|
| Gtr III
|  S  S  S  S  S  S  S  S  S  S  S  S  S  S  S  S
|--8--8-----8--8-----8--8-----8--8-----8--8--8--8--|
|--8--8-----8--8-----8--8-----8--8-----8--8--8--8--|
|--8--8-----8--8-----8--8-----8--8-----8--8--8--8--|
|-10-10----10-10----10-10----10-10----10-10-10-10--|
|-10-10----10-10----10-10----10-10----10-10-10-10--|
|--8--8-----8--8-----8--8-----8--8-----8--8--8--8--|


  Ab
  S S S S S S S S S S S S S S S S
|-4-4-4-4-4-4-4-4-4-4-4-4-4-4-4-4---||
|-4-4-4-4-4-4-4-4-4-4-4-4-4-4-4-4--o||
|-5-5-5-5-5-5-5-5-5-5-5-5-5-5-5-5---||
|-6-6-6-6-6-6-6-6-6-6-6-6-6-6-6-6---||
|-6-6-6-6-6-6-6-6-6-6-6-6-6-6-6-6--o||
|-4-4-4-4-4-4-4-4-4-4-4-4-4-4-4-4---||
|
| S S S S S S S S S S S S S S S S
|-----------------------------------||
|----------------------------------o||
|-8-8-8-8-8-8-8-8-8-8-8-8-8-8-8-8---||
|-----------------------------------||
|-6-6-6-6-6-6-6-6-6-6-6-6-6-6-6-6--o||
|-----------------------------------||
|
| S S S S S S S S S S S S S S S S
|-4-4---4-4---4-4---4-4---4-4-4-4---||
|-4-4---4-4---4-4---4-4---4-4-4-4--o||
|-5-5---5-5---5-5---5-5---5-5-5-5---||
|-6-6---6-6---6-6---6-6---6-6-6-6---||
|-6-6---6-6---6-6---6-6---6-6-6-6--o||
|-4-4---4-4---4-4---4-4---4-4-4-4---||


   Out-Chorus
    Eb
    Gtr I
    S S S S S S S S S S S  S  S  S  S  S
||---------------------------------------|
||o-8-8---8-8---8-8---8-8-----8--8--8--8-|
||--8-8---8-8---8-8---8-8-----8--8--8--8-|
||--8-8---8-8---8-8---8-8-----8--8--8--8-|
||o-6-6---6-6---6-6---6-6-----6--6--6--6-|
||---------------------------------------|
|
|   Gtr II
|   S S S S S S S S S S S  S  S  S  S  S
||---------------------------------------|
||o--------------------------------------|
||--8-8-8-8-8-8-8-8-8-8-8S10-10-10-10S12-|
||---------------------------------------|
||o-6-6-6-6-6-6-6-6-6-6-6S=8--8--8--8S10-|
||---------------------------------------|
|
|   Gtr III
|   Q       E   e   H
||---------------------------------------|
||o-8-------8---8---8--------------------|
||--8-------8---8---8--------------------|
||--8-------8---8---8--------------------|
||o-6-------6---6---6--------------------|
||---------------------------------------|


  Bb
   S  S  S  S  S  S  S  S  S  S  S  S  S  S  S  S
|--6--6-----6--6-----6--6-----6--6-----6--6--6--6--|
|--6--6-----6--6-----6--6-----6--6-----6--6--6--6--|
|--7--7-----7--7-----7--7-----7--7-----7--7--7--7--|
|--8--8-----8--8-----8--8-----8--8-----8--8--8--8--|
|--8--8-----8--8-----8--8-----8--8-----8--8--8--8--|
|--6--6-----6--6-----6--6-----6--6-----6--6--6--6--|
|
|  S  S  S  S  S  S  S  S  S  S  S  S  S  S  S  S
|----------------------------------------------------|
|----------------------------------------------------|
|-12-12-12-12-12-12-12-12-12-12-12-12-12-12-10-12----|
|----------------------------------------------------|
|-10-10-10-10-10-10-10-10-10-10-10-10-10-10-10-10----|
|----------------------------------------------------|
|
|  H                       H
|--6-----------------------6-----------------------|
|--6-----------------------6-----------------------|
|--7-----------------------7-----------------------|
|--8-----------------------8-----------------------|
|--8-----------------------8-----------------------|
|--6-----------------------6-----------------------|


  Cm
  Gtr I
   S  S  S  S  S  S  S  S  S  S  S  S  S  S  S  S
|--8--8-----8--8-----8--8-----8--8-----8--8--8--8--|
|--8--8-----8--8-----8--8-----8--8-----8--8--8--8--|
|--8--8-----8--8-----8--8-----8--8-----8--8--8--8--|
|-10-10----10-10----10-10----10-10----10-10-10-10--|
|-10-10----10-10----10-10----10-10----10-10-10-10--|
|--8--8-----8--8-----8--8-----8--8-----8--8--8--8--|
|
| Gtr II
|  S  S  S  S  S  S  S  S  S  S  S  S  S  S  S  S
|----------------------------------------------------|
|----------------------------------------------------|
|-10-10-10-10-10-10-10-10-10-10-10-10-10-10-10-10----|
|----------------------------------------------------|
|--8--8--8--8--8--8--8--8--8--8--8--8--8--8--8--8----|
|----------------------------------------------------|
|
| Gtr III
|  Q           E     e     H
|--8-----------8-----8-----8-----------------------|
|--8-----------8-----8-----8-----------------------|
|--8-----------8-----8-----8-----------------------|
|-10----------10----10----10-----------------------|
|-10----------10----10----10-----------------------|
|--8-----------8-----8-----8-----------------------|


  Ab
  S S S S S S S S S S S S S S S S
|-4-4---4-4---4-4---4-4---4-4-4-4---||
|-4-4---4-4---4-4---4-4---4-4-4-4--o||
|-5-5---5-5---5-5---5-5---5-5-5-5---||
|-6-6---6-6---6-6---6-6---6-6-6-6---||
|-6-6---6-6---6-6---6-6---6-6-6-6--o||
|-4-4---4-4---4-4---4-4---4-4-4-4---||
|
| S S S S S S S S S S S S S S S S
|-----------------------------------||
|----------------------------------o||
|-8-8-8-8-8-8-8-8-8-8-8-8-8-8-8-8---||
|-----------------------------------||
|-6-6-6-6-6-6-6-6-6-6-6-6-6-6-6-6--o||
|-----------------------------------||
|
| H               H
|-4---------------4-----------------||
|-4---------------4----------------o||
|-5---------------5-----------------||
|-6---------------6-----------------||
|-6---------------6----------------o||
|-4---------------4-----------------||


 Outro
  Ab
  Gtrs I, II, III
  W          +W           +W           +W
|----------|------------|------------|--------*|
|----------|------------|------------|--------*|
|----------|------------|------------|--------*|
|-6--------|-(6)--------|-(6)--------|-(6)----*|
|-6--------|-(6)--------|-(6)--------|-(6)----*|
|-4--------|-(4)--------|-(4)--------|-(4)----*|


----------------------------------------------------------------------------

4. It Ends Tonight

Hi you all.. so i don't know if the tabs are ok but i hope you wiil enjoy.=)
All Americam Rjects ... great band...great music =)
email me if you want to tell me things about the tabs : rockwithme@walla.co.il

[Intro]
Am G F G


Am
Your subtleties

F
They strangle me

Dm              Em
I can't explain myself at all.

Am
And all that wants

F
And all that needs

Dm                  Em
All I don't want to need at all.


[PreChorus]

F
The walls start breathing

         C
My minds unweaving

C
Maybe it's best you leave me alone.

F            C
A weight is lifted

          Dm
On this evening

Dm
I give the final blow.

C                      F
When darkness turns to light,

        Am
It ends tonight

        G
It ends tonight.

Am
A falling star

F
Least I fall alone.

Dm              Em
I can't explain what you can't explain.

Am                  F
Your finding things that you didn't know

Dm            Em
I look at you with such disdain


[PreChorus]


[Chorus]
        C               F
When darkness turns to light,
          Am
It ends tonight
          G
It ends tonight.
                 C                    F
Just a little insight will make this right
                 Am
It's too late to fight
           G
It ends tonight,
          F
It ends tonight.

[Bridge]

Am      G
Now I'm on my own side
Dm                F
It's better than being on your side
Am         G                 Dm
It's my fault when you're blind
                    F                    Am
It's better that I see it through your eyes
            F              Dm
All these thoughts locked inside
              G
Now you're the first to know

[Chorus x2]

Ending With Chord C.

------------------------------------------------------------------

5. Change Your Mind

C                F          Am        G
Dont solve the problem when danger is bitter

C                  F             Am        G
Far away where you stock them in cages that tether


Pre-Chorus:
F           C
And all the bridges you've burned

F            C
Leave you trapped out at all sides

F            C         F           G/C
Now the tables do turn and its all gone whats left for you

Chorus:

F            C               F            G
And when the sky is falling, dont look outside the window

F             C                 F             G
Step back and here I'm calling, give up, dont take the fast road

F             C                    F                C
Its just your doubt that binds you, just drop those thoughts behind you

F    F      C    G
Now, Change your mind and let go too soon


Sit down, youre sinking, there's no one to watch you
Skip town youre thinking, there's no one to stop you

Pre-Chorus...

F          Am               F
Dont run away, stop feeling fine

F                    C           G
Its better than your worst, your worst day

F           Am                 F
No words to say, I'll give you mine

F                 C          G
And pocket all the hurt, and just stay

F        Am
Dont run away
 F                   C                F
Its better than your worst, your worst day

Chorus (softly)

Chorus

F        C/Am
Dont run away

F         G
Change your mind

G                   F
And let go too soon      (x4)

Solo (somewhere in there)

GUITAR 1
e|--0---1-0-----1---3-1-----3---5-3-1-3-1-0-1-0-----3---5-3-----5---6-5-----6---8-6-8-10-8-10-12b--|
B|------------------------1---1-----------------1-3---3-----3-5---5-----5-6---6--------------------|
G|2---2-----2-3---3-----3--------------------------------------------------------------------------|
D|-------------------------------------------------------------------------------------------------|
A|-------------------------------------------------------------------------------------------------|
E|-------------------------------------------------------------------------------------------------|

GUITAR 2
e|--------------------------------------------------0---1-0-----1---3-1-----3---5-3-5-6-5-6-8~-----|
B|------------------------------------------------------------------------1---1--------------------|
G|------------------0-------0---2-0---0-----------2---2-----2-3---3-----3--------------------------|
D|--2---3-2-----3-----3-------------3---3-2-3-2----------------------------------------------------|
A|0---0-----0-1---1-----1-3---3-----------------3--------------------------------------------------|
E|-------------------------------------------------------------------------------------------------|


- MusicFreaq1992 and ccs127

-----------------------------------------------------------------

6. Night Drive

Tabbed by: julioman

i was really disappointed that no one had tabbed this song yet, so I gave it a try. I
it's not perfect, but try to enjoy it.

.=palm mute

Intro: (Lots of distortion)
E|-----------------------------|
B|---------------66-xxx--------|
G|-77-xxx-22-xxx-55-xxx-55-xxx-|
D|-77-xxx-22-xxx-33-xxx-55-xxx-|
A|-55-xxx-00-xxx--------33-xxx-|
E|-----------------------------|

0:12
E|-------------------------------------------|
B|-------------------------------------------|
G|---------------------5-5--555--------------|     x2
D|-7-7--777--2-2--222--3-3--333--5-5-555-----|
A|-7-7--777--2-2--222--3-3--333--5-5-555-----|
E|-5-5--555--0-0--000------------3-3-333-----|

0:28 (In the background)
E|----5-----3-----3-5-0----------------------|
B|--5-----5-----5----------------------------|
G|-5-5---4-5---4-4---------------------------|     x2
D|-------------------------------------------|
A|-------------------------------------------|
E|-------------------------------------------|

0:41 (I'm not sure how many times to play each note, just play however many sound right
you)
E|---------------------------------------------------------|
B|---------------------------------------------------------|
G|---------------------555555555555------------------------|
D|-7777777777722222222225555555555555555555555-------------|    x2
A|-7777777777722222222223333333333335555555555-------------|
E|-555555555550000000000-----------33333333333-------------|
PM ...........................................

0:53
E|--------x-------|
B|--------x-------|
G|-x-x-xx-x-------|
D|-x-x-xx-x-------|
A|-x-x-xx-x-------|
E|--------x-------|


0:56
E|-------------------------------------------|
B|-------------------------------------------|
G|---------------------5-5--555--------------|     x2
D|-7-7--777--2-2--222--3-3--333--5-5-555-----|
A|-7-7--777--2-2--222--3-3--333--5-5-555-----|
E|-5-5--555--0-0--000------------3-3-333-----|

1:09 (I couldn't quite figure this part out)
E|-----------------------------------|
B|-----------------------------------|
G|10-101010--7-777--9-999--10-101010-|
D|10-101010--7-777--9-999--10-101010-|
A|-8-8-8-8---5-555--7-777---8-8-8-8--|
E|-----------------------------------|

1:15 (once again, play the number of times that sounds right to you)
E|---------------------------------------------------------|
B|---------------------------------------------------------|
G|----------------------55555555555------------------------|
D|-7777777777722222222225555555555555555555555-------------|    x2
A|-7777777777722222222223333333333335555555555-------------|
E|-555555555550000000000-----------33333333333-------------|
PM ...........................................

1:42
E|-------------------------------------------|
B|-------------------------------------------|
G|---------------------5-5--555--------------|     x4
D|-7-7--777--2-2--222--5-5--555--5-5-555-----|
A|-7-7--777--2-2--222--3-3--333--5-5-555-----|
E|-5-5--555--0-0--000------------3-3-333-----|

2:12 (possibly with a slight delay effect)
E|----5-----3-----3-5-0----------------------|
B|--5-----5-----5----------------------------|
G|-5-5---4-5---4-4---------------------------|
D|-------------------------------------------|
A|-------------------------------------------|
E|-------------------------------------------|

2:24
E|-----------------------------------|
B|-----------------------------------|
G|10-101010--7-777--9-999--10-101010-|
D|10-101010--7-777--9-999--10-101010-|
A|-8-8-8-8---5-555--7-777---8-8-8-8--|
E|-----------------------------------|

2:41
E|-----------------------------------------|            x2
B|---------------66-xxx--------------------|
G|-77-xxx-22-xxx-55-xxx-55-xxx-------------|
D|-77-xxx-22-xxx-33-xxx-55-xxx-------------|
A|-55-xxx-00-xxx--------33-xxx-------------|
E|-----------------------------------------|

Outro
2:54
E|-------------------------------------------|
B|-------------------------------------------|
G|---------------------5-5--555--------------|     x5
D|-7-7--777--2-2--222--3-3--333--5-5-555-----|
A|-7-7--777--2-2--222--3-3--333--5-5-555-----|
E|-5-5--555--0-0--000------------3-3-333-----|

End on:
E|--|
B|--|
G|--|
D|-7|
A|-7|
E|-5|

Okay, I know it's not perfect, and I'll take any comments, suggestions, or comments you
Email me at picklekid77@yahoo.com

------------------------------------------------------------------

7. 11:11 P.M. (intro)

Tabbed by: Daniel Nalepa
Email: guitarplayer200480@yahoo.com

Tuning:EADGBE

e|------4-4--3-3---------------------------------------------------------------------|
B|-----------------4-4--2-2--1-1-----------------------------------------------------|
G|-----------------------------------------------------------------------------------|
D|-----------------------------------------------------------------------------------|
A|-----------------------------------------------------------------------------------|
E|-----------------------------------------------------------------------------------|

--------------------------------------------------------------------

8. Dance Inside

Tabbed by: DeJo Wrigley
Email: djwrigle@iupui.edu

Tuning: standard (eBGDAE)

this should be pretty d-AAR-n accurate! (notice: use diff. C#m7 form in the BRIDGE)  ENJOY!

| +  harmonic

    C#m7   Asus2   Esus2   Bsus4   Bsus4/3  E
e|---0-------0-------0-------0-------0------0-------------------------------|
B|---0-------0-------0-------0-------0------0-------------------------------|
G|---4-------2-------4-------9-------8------1-------------------------------|
D|---2-------2-------4-------9-------9------2-------------------------------|
A|---4-------0-------2-------9-------9------2-------------------------------|
E|---x-------x-------x-------x-------x------0-------------------------------|

CHORDS FOR BRIDGE:
    *C#m7  C#m   C#7  F#m     G#m     A     B
e|---4------4-----4----2-------4------5-----7-------------------------------|
B|---5------5-----6----2-------4------5-----7-------------------------------|
G|---4------6-----4----2-------4------6-----8-------------------------------|
D|---6------6-----6----4-4-4---6-6-6--7-7---9-------------------------------|
A|---4------4-----4----4-------6------7-----9-------------------------------|
E|---x------x-----x----2-------4------5-----7-------------------------------|

Intro:

C#m7 Asus2 Esus2 Bsus4 Bsus4/3
C#m7 Asus2 Esus2

e|--+12-----+7-16-----------------------------------------------------------|
B|--+12-+12------14---------------------------------------------------------|
G|--------------------------------------------------------------------------|
D|--------------------------------------------------------------------------|
A|--------------------------------------------------------------------------|
E|--------------------------------------------------------------------------|

VERSE1-
C#m7              Asus2                   Bsus4  Bsus4/3
you don't have to move, you don't have to speak/ lips for biting.
C#m7              Asus2                   Bsus4 Bsus4/3
you're staring me down, a glance makes me weak/ eyes for striking.

C#m7  Asus2   Esus2   Bsus4  Bsus4/3

C#m7          Asus2                    Bsus4 Bsus4/3
now im twisted up when i'm twisted with you/ brush so lightly.
C#m7              Asus2                      Bsus4 Bsus4/3
and time trickles down, and i'm breathing for two/ squeeze so tightly.

PRECHORUS-
C#m7    Asus2          Esus2
i'll be fine, you'll be fine.
Esus2
this moment seems so long
C#m7        Asus2         Esus2
don't waste now, precious time
Bsus4       Bsus4/3    C#m7
we'll dance inside the song


CHORUS-
C#m7          Asus2            Esus2
what makes the one to shake you down?
             Bsus4   Bsus4/3   C#m7
each touch belongs to each new sound
            Asus2            Esus2
say now you want to shake me too
            Bsus4    Bsus4/3 C#m7
move down to me, slip into you

VERSE 2-
C#m7           Asus2                          Bsus4  Bsus4/3            C#m7
she sinks in my mind as she sheds through her skin/touch like taste like fire
              Asus2                Bsus4  Bsus4/3
hands to know what eyes no longer defend/ hands to fuel desire

[PRECHORUS] & [CHORUS]

C#m7  Asus2   Esus2   Bsus4  Bsus4/3
C#m7  Asus2   Esus2   Asus2

Bsus4   Bsus4/3 C#m7    Asus2
Ooo ah, Ooo ah, Ooo ah, Ooo ah

Bsus4   Bsus4/3 C#m7    Asus2  Esus2
Ooo ah, Ooo ah, Ooo ah, Ooo ah

BRIDGE-
*C#m7                       C#m
and i'll be fine, you'll be fine
         C#7 *C#m7
is this fine? i'm not fine
F#m        G#m             A            B
give me pieces, give me things to stay awake (stay awake)

[CHORUSx2]

ending:
C#m7        Asus2        Esus2
move down to me slip into you

Bsus4   Bsus4/3   C#m7  Asus2  Esus2 E

-------------------------------------------------------------------------


9. Top of the World

Tabbed by: draino231
Tuning: Standard


Intro (pluck strings..if you know the song you know what im saying) figure out strum on ur own


e|--7-----3----5----2--------------------------------------------------------|
B|--7-----3----5----2--------------------------------------------------------|
G|--7-----4----6----3--------------------------------------------------------|
D|--9-----5----7----4--------------------------------------------------------|
A|--9-----5----7----4--------------------------------------------------------|
E|7-7---3-3--5-5--2-2--------------------------------------------------------|

Verse
(some is palm muted, some isnt..listen to the song)

e|------------------|
B|------------------|
G|-4----------------|
D|-4--5--7--4-------|
A|-2--5--7--4-------|
E|----3--5--2-------| repeat however many times it is

Bridge "don't be so.."

e|------------------|
B|------------------|
G|------------------|
D|---5--7-----------|
A|---5--7-----------|
E|---3--5-----------| x2 end on

2
2
3
4
4
2 pluck thing like the intro..or just

4
4
2 on

other verses

Chorus

e|------------------|
B|------------------|
G|-4----------------|
D|-4--5--7--4-------|
A|-2--5--7--4-------|
E|----3--5--2-------|

Solo

Guitar 1

e|------------------|
B|------------------|
G|-4----------------|
D|-4--5--7--4-------|
A|-2--5--7--4-------|
E|----3--5--2-------|

Guitar 2
e|---------------------------------------------------------------------------|
B|---------------------------------------------------------------------------|
G|---------------------------------------------------------------------------|
D|---------------------------------------------------------------------------|
A|---------------------------------------9-7-------9-9------------7----------|
E|-7-7-10-10-9-10-9h7-7-5-7-5-10-10-9-10-----10-10-----10-10-9-10---10-9-9---|

(cont)

A|-------9-7-5-4-5-5-4-5---|
E|-10-10-----------------7-|

Bridge 2 "paint yourself a picture"

e|---------------------------|
B|---------------------------|
G|---------------------------|
D|-5--7--9--12--5--7--9------|      ends on          5  7  9
A|-5--7--9--12--5--7--9------|  "and you win"        5  7  9
E|-3--5--7--10--3--5--7------|                       3  5  7

Bridge 1
Chorus acouple times

Thats all folks.

--------------------------------------------------------------------

10. Straitjacket Feeling

Tabbed by Ungregistered

A   002200
B   024400
E   079900
C#m 046600
F#m 044200  *Chose to go with these versions of F#m and G#m coz it gives me a G#m 066400   cleaner sound

Hey, Great song, but cant quite figure out the plucking along the verses...=(
Anyway, email me if you guyz know how to play it yea? (as_han@lycos.com)

Standard Tuning - EADGBE

Intro
   F#m            G#m           A
-------0----|-------0----|-------------0--|
--0h2-------|--0h4-----0-|--0--2----------|
--2-------2-|------------|--------2-------|
--4---------|--6---------|----------------|
------------|--6---------|--0-------------|
------------|------------|----------------|


F#m          A            E
Back me down from backing up
            B                      F#m
Hold your breath now it's stacking up
              A               E
Etched with marks, but I can deal
                  B                   C#m
And you're the problem and you can't feel
         A                    B
Try this on, straitjacket feeling
                     G#m
so maybe I won't be alone
           A                     B
Take back now, my life you're stealing

Yesterday was over
E
Today I'm fine without you
C#m
Runaway this time without you
A
And all I ever thought you'd be
       B                                A  G#m  F#m
That face is tearing holes in me again

Trust you is just one defense
off a list of others, you don't make sense
Beg me time and time again
to take you back now, but you can't win
Take back now, my life you're stealing

Yesterday was over
Today I'm fine without you
Runaway this time without you
And all I ever thought you'd be
That face is tearing holes in me again
but today I'm fine without you
Runaway this time without you
And all the things you put me through
I'm holding on by letting go of you

A              F#m         G#m
And when the memory slips away
                  E                A
There will be a better view from here
            F#m         G#m
And only lonesome you remains
                E              A
and just the thought of you I fear
          F#m
it falls away

Yesterday was over
Today I'm fine without you
Runaway this time without you
And all I ever thought you'd be
That face is tearing holes in me again
but today I'm fine without you
Runaway this time without you
And all the things you put me through
I'm holding on by letting go of you

-------------------------------------------------------------------

11. I'm Waiting

standard tuning
EADGBe


-----------------------------------------------------------|
-----------------------------------------------------------|
-----7-7-7-----7-7-7-----7-7-7-7-7-7-7-7-7-7-7-7-7-7-7-7---|
--2--x-x-x--5--x-x-x--7--7-7-7-7-7-7-7-7-7-7-7-7-7-7-7-7---|x2
--2--5-5-5--5--5-5-5--7--5-5-5-5-5-5-5-5-4-4-4-4-4-4-4-4---|
--0---------3---------5------------------------------------|

chorus
-------------------------------------------------|
-------------------------------------------------|
---7-------7------------------------7------------|
---7-(x6)--7-(x6)--7-------9--------7-(x12)------|
---5-------4-------7-(12)--9-(x12)--5------------|
-------------------5-------7---------------------|

-----------------------------|
-----------------------------|
-----7-7-7-----7-7-7---------|
--2--x-x-x--5--x-x-x-7-------|
--2--5-5-5--5--5-5-5-7-------|
--0---------3--------5-------|


chorus
-------------------------------------------------|
-------------------------------------------------|
---7-------7------------------------7------------|
---7-(x6)--7-(x6)--7-------9--------7-(x12)------|x2
---5-------4-------7-(12)--9-(x12)--5------------|
-------------------5-------7---------------------|

Tabbed by: ccs127
Email: ccs127@comcast.net

Tuning: Standard

Not too hard, sounds perfect to me.  Comments always welcome.  Enjoy.

e|0h2h3-3-2---2---0h2h3-3-2b---2b---2h3h5-5-3-2-3-2-----5-5-5-5-7-7-9-9-7-9-10-10b-12bp10---|
B|----------3---3------------3----3-----------------3/5-------------------------------------|
G|------------------------------------------------------------------------------------------|
D|------------------------------------------------------------------------------------------|
A|------------------------------------------------------------------------------------------|
E|------------------------------------------------------------------------------------------|

tabbed by ccs127 and guitarist11

---------------------------------------------------------------------------

12. Can't Take It

Tabbed by scumm

Em  C  Am7  D  X2

Em             C
  You speak to me
  Am7               D
I know this will be temporary
Em           C
  You ask to leave
    Am7              D              Em
But I can't tell you that I've had enough

        
Добавлено: 11.03.2012
Другие материалы по этой песне:
  • Аккорды и текст

Страница создана 11.03.2012
http://primanota.ru/all-american-rejects/move-along-album-chords.htm
Привет, Гость.
Предлагаем пройти революционный курс по гитаре.
Подарок от PrimaNota.Ru, забирай!