PrimaNota.ru - самый крупный в мире бесплатный архив песенных текстов, аккордов, табулатур и нот


All-american Rejects - Dirty Little Secerts - бас-таба, видео

Регистрация Запомнить меня
Войти через:  Facebook Google Twitter Vk Yandex Mail.ru

All-american Rejects - Dirty Little Secerts - бас-таба, видео

Печатать
Просмотров: 90
Standard tuning: E,A,D,G

Intro:(Bass comes in at 0:07)
G--------|----------------|----------------|-----------------------|
D--------|----------------|----------------|-----------------------|
A--------|----------------|----------------|11-11-11-11-11-11-11-11|
E-1/-----|6666666644444444|6666666644444444|-----------------------|

Pre Chorus: (Bass comes in at 0:29)
G--------|-------------|---------------|------------|-----------|----------|
D--------|-------------|---------------|------------|-----------|---1---5--|
A--3-33-3|-5-3-1-------|---------------|-5-3-1------|-6-66-6----|-1--------|
E--------|-------------|-3-33-3--------|------------|-----------|----------|

G--------|----------|
D--------|----------|
A-8-88-8-|----------|
E-------8|-11111111-|

Chorus:(0:42)
G------------|------------|--------------------|
D------------|------------|--------------------|
A------------|-8866666666-|------------------33|
E-666666-----|------------|-3333333311111111---|

G------------|------------|------------------|---------|
D------------|------------|------------------|---------|
A------------|-8866666666-|------------------|-6-6-6-6-|
E-666666-----|------------|-3333333311111111-|---------|

Verse:(0:59)x2
D------------|---------------------------------|------------------|
G------------|---------------------------------|------------------|
A------------|-8888888810-10-10-10-10-10-10-10-|-66666666---------|
E-66666666---|---------------------------------|------------------|

Pre Chorus: (Bass comes in at 1:12)
G--------|-------------|---------------|------------|-----------|----------|
D--------|-------------|---------------|------------|-----------|---1---5--|
A--3-33-3|-5-3-1-------|---------------|-5-3-1------|-6-66-6----|-1--------|
E--------|-------------|-3-33-3--------|------------|-----------|----------|

G--------|----------|
D--------|----------|
A-8-88-8-|----------|
E-------8|-11111111-|


Chorus:(1:25)
G------------|------------|--------------------|
D------------|------------|--------------------|
A------------|-8866666666-|------------------33|
E-666666-----|------------|-3333333311111111---|

G------------|------------|------------------|---------|
D------------|------------|------------------|---------|
A------------|-8866666666-|------------------|-6-6-6-6-|
E-666666-----|------------|-3333333311111111-|---------|

Bridge:(1:42)
G------------|---------------------|------------------|------------------|
D------------|---------------------|------------------|------------------|
A------------|------666666666666---|-1/6--------------|------------------|
E-3333333333-|-1111----------------|------------------|-3333333333333333-|

G-------------------|----------------------|------------------|---------|
D-------------------|----------------------|------------------|---------|
A------666666666666-|-1/6------------------|------------------|---------|
E-1111--------------|-----10(x16)----------|-8888888888888888-|

(2:02)x4
G------------------|
D------------------|
A------------------|
E-6666666644444444-|

(2:22)
G-----------|---------|----------------|
D-----------|---------|----------------|
A-----------|-666666--|--------8888888-|
E-1/666666--|---------|-333333---------|

Chorus:(2:29)
G------------|------------|--------------------|
D------------|------------|--------------------|
A------------|-8866666666-|------------------33|
E-666666-----|------------|-3333333311111111---|

G------------|------------|------------------|---------|
D------------|------------|------------------|---------|
A------------|-8866666666-|------------------|-66666666|
E-666666-----|------------|-3333333311111111-|---------|

G------------|--------------------------|-----------------|---------|
D------------|--------------------------|-----------------|---------|
A-88888888---|-10-10-10-10-10-10-10-10--|-11--------------|---------|
E------------|--------------------------|-----------------|---------|

Ending(Bass comes in at 2:52)
G------------|------------|
D------------|------------|
A------------|------------|
E-1/66666666-|-4-4343-1---|

Thanks for veiwing........and this is my first tab so ya.......hope you liked it......
Добавлено: 18.11.2013
Другие материалы по этой песне:
  • Аккорды и текст

Страница создана 18.11.2013
http://primanota.ru/all-american-rejects/dirty-little-secerts-chords.htm
Привет, Гость.
Предлагаем пройти революционный курс по гитаре.
Подарок от PrimaNota.Ru, забирай!