PrimaNota.ru - самый крупный в мире бесплатный архив песенных текстов, аккордов, табулатур и нот


Alkaline Trio - Nose Over Tail Damnesia - таба, видео

Регистрация Запомнить меня
Войти через:  Facebook Google Twitter Vk Yandex Mail.ru

Alkaline Trio - Nose Over Tail Damnesia - таба, видео

Печатать
Просмотров: 125
This song is pretty straight-forward and simple.

I only spent about a half hour figuring it out so it may not be 100%

The strumming isn't easy to tab out so you'll need to listen to the song.

Artist: Alkaline Trio
Song: Nose Over Tail
Album: Damnesia
Tuning: Standard
Tabbed by: TroyFM


Intro:
e|------------------|
B|------------------|
G|-88888888-66666666|
D|-99999999-99999999| x2 
A|-99999999-77777777|
E|-77777777-00000000|


Verse:
e|------------------|
B|------------------|
G|-88888888-66666666|
D|-99999999-99999999| x4
A|-99999999-77777777|
E|-77777777-00000000|


Chorus:
e|-----0---|
B|---------|
G|----6-6--| x2 (let each note ring)
D|---9---9-|
A|--7-----7|
E|-9-------|

e|------------------|
B|------------------|
G|------------------|
D|-77777777-99999999|
A|-77777777-99999999|
E|-55555555-77777777|

e|-----0---|
B|---------|
G|----6-6--| x2 (let each note ring)
D|---9---9-|
A|--7-----7|
E|-9-------|

e|------------------|
B|------------------|
G|------------------|
D|-77777777-9~~~~~~~|
A|-77777777-9~~~~~~~|
E|-55555555-7~~~~~~~|


Break:
e|------------------------------------------------------|
B|------------------------------------------------------|
G|------------------------------------------------------|
D|-9999999999999-9999999999999-1111119-9-9-7777777777777| x2
A|-7777777777777-9999999999999-1111119-9-9-7777777777777|
E|-0000000000000-7777777777777-9-9-9-7-7-7-5555555555555|


Verse 2:

e|------------------|
B|------------------|
G|-88888888-66666666|
D|-99999999-99999999| x3 (different strumming pattern)
A|-99999999-77777777|
E|-77777777-00000000|

e|------------------|
B|------------------|
G|-88888888-6~~~~~~~|
D|-99999999-9~~~~~~~|
A|-99999999-7~~~~~~~|
E|-77777777-0~~~~~~~|

e|------------------|
B|------------------|
G|-88888888-66666666|
D|-99999999-99999999| x2
A|-99999999-77777777|
E|-77777777-00000000|


Chorus:
e|-----0---|
B|---------|
G|----6-6--| x2 (let each note ring)
D|---9---9-|
A|--7-----7|
E|-9-------|

e|------------------|
B|------------------|
G|------------------|
D|-77777777-99999999|
A|-77777777-99999999|
E|-55555555-77777777|

e|-----0---|
B|---------|
G|----6-6--| x2 (let each note ring)
D|---9---9-|
A|--7-----7|
E|-9-------|

e|------------------|
B|------------------|
G|------------------|
D|-77777777-9~~~~~~~|
A|-77777777-9~~~~~~~|
E|-55555555-7~~~~~~~|


Bridge:
e|---------|
B|---------|
G|-----8~~~|
D|-2~~~x---| x2
A|-2~~~6~~~|
E|-0~~~0~~~|

e|---------------------------|
B|---------------------------|
G|--------------888--888--8--|
D|-222xx222xx2xxxxxxxxxxxxxxx| x2 (very fast strumming)
A|-222xx222xx2xx666xx666xx6xx|
E|-000xx000xx0xx000xx000xx0xx|

e|----------------------------|
B|----------------------------|
G|----------------------------|
D|-7777777777777-4444444444444|
A|-7777777777777-4444444444444|
E|-5555555555555-2222222222222|

e|---------------------------|
B|---------------------------|
G|--------------888--888--8--|
D|-222xx222xx2xxxxxxxxxxxxxxx| x2 (very fast strumming)
A|-222xx222xx2xx666xx666xx6xx|
E|-000xx000xx0xx000xx000xx0xx|

e|----------------------------|
B|----------------------------|
G|----------------------------|
D|-7777777777777-4444444444444|
A|-7777777777777-4444444444444|
E|-5555555555555-2222222222222|


Outro:
e|--------------------------------------|
B|--------------------------------------|
G|-999-9998-4-44444444-666--88-999999999|
D|-xxx-xxxx-x-xxxxxxxx-xxxxxxx-xxxxxxxxx| x4 (it's awkward to tab this part)
A|-777-7776-2-22222222-444xx66-777777777|
E|-000-0000-0-00000000-000xx00-000000000|



and that's it, the song is pretty easy, good luck.
Добавлено: 12.08.2013
Другие материалы по этой песне:
  • Аккорды и текст

Страница создана 12.08.2013
http://primanota.ru/alkaline-trio/nose-over-tail-damnesia-chords.htm
Привет, Гость.
Предлагаем пройти революционный курс по гитаре.
Подарок от PrimaNota.Ru, забирай!