PrimaNota.ru - самый крупный в мире бесплатный архив песенных текстов, аккордов, табулатур и нот


Alkaline Trio - Buried - текст песни, таба, видео

Регистрация Запомнить меня
Войти через:  Facebook Google Twitter Vk Yandex Mail.ru

Alkaline Trio - Buried - текст песни, таба, видео

Печатать
Просмотров: 110
This is the first tab i've ever done...
i hope its good
i had a look at the other tabs for this song and
i've basically expanded the other one thats on here
to show all the different parts and rythm
any criticisms or pointers would be appreciated

Intro + Verse 1
e|--------------------------------------------------- > x3>
B|-----------------------------------------|   ------ >
G|-----------------------------------------|    ----- >
D|---0---2-0---0---4-----------------------|     ---- >
A|-----0-----0----------7--5---7-----------|      --- >
D|-0-------------5---5-------5-------------|       -- >
                                                     X2
------------|                                      -- >
------------|                                     --- >
------------|                                    ---- >
-7—-7-7--5--|                                   ----- >
-7--7-7--5--|                                  ------ >
-7—-7-7--5------------------------------------------- > >>>>>>>>>>>>>>>>>>>>>>>>>>>>>>>>>>


e|---------------------------------|        x4
B|---------------------------------|
G|---------------------------------|
D|---0---2-0---0-------------------|
A|-----0-----0---------------------|
D|-0-------------------------------|


Verse 2
e|--------------------------------------------------|
B|--------------------------------------------------|
G|--7--7-7-7----------------------------------------|
D|--7--7-7-7--5--5-5-5--7--7-7-7--5--5-5-5----------|
A|--5--5-5-5--5--5-5-5--7--7-7-7--5--5-5-5----------|
D|--0--0-0-0--5--5-5-5--7--7-7-7--5--5-5-5----------|

e|--------------------------------------------------|
B|--------------------------------------------------|
G|--7--7-7-7----------------------------------------|
D|--7--7-7-7--5--5-5-5--7--7-7-7--7--7-7-7----------|
A|--5--5-5-5--5--5-5-5--7--7-7-7--7--7-7-7----------|
D|--0--0-0-0--5--5-5-5--7--7-7-7--7--7-7-7----------|

e|--------------------------------------------------|
B|--------------------------------------------------|
G|--7--7-7-7----------------------------------------|
D|--7--7-7-7--5--5-5-5--7--7-7-7--5--5-5-5----------|
A|--5--5-5-5--5--5-5-5--7--7-7-7--5--5-5-5----------|
D|--0--0-0-0--5--5-5-5--7--7-7-7--5--5-5-5----------|

e|---------------------------------------------------------|
B|---------------------------------------------------------|
G|--7--7-7-7-----------------------------------------------|
D|--7--7-7-7--5--5-5-5--7-7-7--7-7-7--7-7-7--7-7-7---------|
A|--5--5-5-5--5--5-5-5--7-7-7--7-7-7--7-7-7--7-7-7---------|
D|--0--0-0-0--5--5-5-5--7-7-7--7-7-7--7-7-7--7-7-7---------|

Chorus
|--------------------------------|     x4
|--------------------------------|
|-7-7-7--------------------------|
|-7-7-7--5-5-5--7-7-7-7-7-7-7-7--|
|-5-5-5--5-5-5--7-7-7-7-7-7-7-7--|
|-0-0-0--5-5-5--7-7-7-7-7-7-7-7--|

Bridge
e|-----------------------------------------| x3
B|-----------------------------------------|
G|-----------------------------------------|
D|---0---2-0---0---4-----------------------|
A|-----0-----0----------7--5---7-----------|
D|-0-------------5---5-------5-------------|

----------------------------|
----------------------------|
----------------------------|
-7—-7-7-7-7-7--5--5-5-5-5-5-|
-7--7-7-7-7-7--5--5-5-5-5-5-|
-7—-7-7-7-7-7--5—-5-5-5-5-5-|

Verse 3
e|---------------------------------------------------------|
B|---------------------------------------------------------|
G|--7--7-7-7-7---------------------------------------------|
D|--7--7-7-7-7--5--5-5-5-5--7--7-7-7-7--5--5-5-5-5---------|
A|--5--5-5-5-5--5--5-5-5-5--7--7-7-7-7--5--5-5-5-5---------|
D|--0--0-0-0-0--5--5-5-5-5--7--7-7-7-7--5--5-5-5-5---------|

e|---------------------------------------------------------|
B|---------------------------------------------------------|
G|--7--7-7-7-7---------------------------------------------|
D|--7--7-7-7-7--5--5-5-5-5--7--7-7-7-7--7--7-7-7-7---------|
A|--5--5-5-5-5--5--5-5-5-5--7--7-7-7-7--7--7-7-7-7---------|
D|--0--0-0-0-0--5--5-5-5-5--7--7-7-7-7--7--7-7-7-7---------|

Chorus
|--------------------------------|     x13
|--------------------------------|
|-7-7-7--------------------------|
|-7-7-7--5-5-5--7-7-7-7-7-7-7-7--|
|-5-5-5--5-5-5--7-7-7-7-7-7-7-7--|
|-0-0-0--5-5-5--7-7-7-7-7-7-7-7--|

Finish on
|---|
|---|
|-7-|
|-7-|
|-5-|
|-0-|

and for anyone who doesnt know how to tune to drop d, just tune the low e string so that 
7th fret sounds the same as the a string

thanks
Добавлено: 06.09.2013
Другие материалы по этой песне:

Страница создана 08.06.2012
http://primanota.ru/alkaline-trio/buried-chords.htm
Привет, Гость.
Предлагаем пройти революционный курс по гитаре.
Подарок от PrimaNota.Ru, забирай!