PrimaNota.ru - самый крупный в мире бесплатный архив песенных текстов, аккордов, табулатур и нот


Aljoscha - Sweet People - таба, видео

Регистрация Запомнить меня
Войти через:  Facebook Google Twitter Vk Yandex Mail.ru

Aljoscha - Sweet People - таба, видео

Печатать
Просмотров: 839
Уроки эстрадного вокала в Санкт-Петербурге
-------------------------------------------------------------------------------
                             Sweet People - Aljoscha
-------------------------------------------------------------------------------
Tabbed by: Martin Messner
Email: bigbonsai@hotmail.de


Tuning: E-Standard
Youtube-Link: http://www.youtube.com/watch?v=LVNY9EAYrWs

//////////////////////////////////////////////
//                                          //
//  RATING THIS TAB TAKES ABOUT 5 SECONDS   //
//  AND HELPS ME TO IMPROVE MY WORK         //
//                                          //
//////////////////////////////////////////////

Intro
e|---------------------------------------------------------------------------|
B|----------------------------1-----0-----1-------------1-----0-----1--------|
G|--------------------------0---0-----0-----0---0-----0---0-----0-----0---0--|
D|------4-5-------5-2-----2-------2-----2-----2-----2-------2-----2-----2----|
A|----2---------2-------3-------------------------0--------------------------|
E|--0---------0--------------------------------------------------------------|

"Oh, sweet people" - Mainpart
e|----------------------------------------------------|
B|-------------------------------0-1-0--------0-1-0---|
G|-------0--------------------------(2)----------(0)--|
D|-----4---2--------2-4-2------2----(2)-----2----(2)--|
A|---2----(2)-----1----(1)---0------(0)---3------(3)--|
E|-0------(0)---2------(2)----------------------------|

Figure 2
e|--12-------12-------12----12-------12-------12~-----|
B|-----12-------12-------------10-------10----10~-----|
G|--------12-------12----12-------12-------12---------|
D|----------------------------------------------------|
A|----------------------------------------------------|
E|----------------------------------------------------|

Mainpart à la Metal Version
e|---------------------------------------------------------------------------|
B|---------------------------------------------------------------------------|
G|--------------------------------------2-2-2--2--2--2-2-2-5-5-5--5--5--5-5-5|
D|--2-2--2--2--2-2-2-4-4-4--4--4--4-4-4-2-2-2--2--2--2-2-2-5-5-5--5--5--5-5-5|
A|--2-2--2--2--2-2-2-4-4-4--4--4--4-4-4-0-0-0--0--0--0-0-0-3-3-3--3--3--3-3-3|
E|--0-0--0--0--0-0-0-2-2-2--2--2--2-2-2--------------------------------------|

I loved this song as much as maNgas - We could be the same. These both would have been my Top2.
And I'm saying that as a german ;)

Have fun and enjoy :)
Martin Messner
Добавлено: 02.04.2012
Другие материалы по этой песне:

Страница создана 02.04.2012
http://primanota.ru/aljoscha/sweet-people-chords.htm
Привет, Гость.
Предлагаем пройти революционный курс по гитаре.
Подарок от PrimaNota.Ru, забирай!