PrimaNota.ru - самый крупный в мире бесплатный архив песенных текстов, аккордов, табулатур и нот


Alistair Lindsay - Flat Head Four - таба, видео

Регистрация Запомнить меня
Войти через:  Facebook Google Twitter Vk Yandex Mail.ru

Alistair Lindsay - Flat Head Four - таба, видео

Печатать
Просмотров: 99
Song: Flat Head Four
Artist: Alistair Lindsay
Tuning: Standard
Tabbed By: GuitarHawk99
Description:

This is the tab for the song Flat Head Four from the game roller coaster
tycoon 3, it is a really good song and not too hard to play, i tabbed it
all by ear and i think it sounds pretty good, have fun and enjoy!


Intro w/ Dist
|-------------------------------------|
|-------------------------------------|
|-----3---5-----------3---5-----------|
|-3-5---------5--5------------5--5----|
|-------------------------------------|
|-------------------------------------|

|-------------------------------------|
|-------------------------------------|
|------------------3-3----------------|
|-5--3-3--5-5--3-5-----5-5--3---------|
|-----5-----------------------5\3-----|
|---------------------------------6-3~|

Pre chorus
|------------------------------------------------------|
|------------------------------------------------------|
|-10-10--9-9--7-7--5-5-----------10-10--9-9--7-7--5-5\-|
|-10-10--9-9--7-7--5-5-----------10-10--9-9--7-7--5-5\-|
|-8--8---7-7--5-5--3-3--3/10-10--8--8---7-7--5-5--3-3\-|
|------------------------------------------------------|

Chorus    Harm
|----------|-------------------------------------------------------|
|----------|-------------------------------------------------------|
|-3--5----(12)-0-----3--5----0-0------3--5----0-0------3--5----0-0-|
|-3--5----(12)-0-----3--5----0-0------3--5----0-0------3--5----0-0-|
|------------------------------------------------------------------|
|------------------------------------------------------------------|

verse
|----------------------------------------------------------------|
|----------------------------------------------------------------|
|-5----7----3--5----0-0--5----7------------10-10--9-9--7-7--5-5\-|
|-5----7----3--5----0-0--5----7------------10-10--9-9--7-7--5-5\-|
|-3----5-----------------3----5----5h6p5---8--8---7-7--5-5--3-3\-|
|---------------------------------------8------------------------|


Chorus


Verse



Guitar solo                                                 half
|-----------------------------------------------------------/--|
|----------------------------------------------------------/---|
|---------3---------------------3-3---------------------5-3----|
|-----3-5---5--3---3--5-5---3-------5-5--3---3--5-5---3--------|
|-3/5------------5------------5------------5-------------------|
|--------------------------------------------------------------|

|-----------------------------------------------------------------------|
|-----6-6-------8-8---8-------8~~~--------------------------------------|
|-5-7-------5h7-----7---7-5----------5p3-----5p3---3--------------------|
|---------------------------8--------------5-----5---5-3---3------------|
|--------------------------------------------------------5---5-3---3----|
|----------------------------------------------------------------6--6-3-|

|--------------------------------------------------------------------|
|-15--15--(15)-----------------15--15--15--15--15--(15)----18b20~~~~-|
|-17b(19)r(17)-15h17p15~~~--17-17b(19)(19)(19)(19)r(17)-15-----------|
|--------------------------------------------------------------------|
|--------------------------------------------------------------------|
|--------------------------------------------------------------------|


|-------------------------------------|
|-------------------------------------|
|------------------3-3----------------|
|-5--3-3--5-5--3-5-----5-5--3---------|
|-----5-----------------------5\3-----|
|---------------------------------6-3~|



Pre chorus


Chorus



|--------------------------------------------------------------------|
|--------------------------------------------------------------------|
|-----3---5-----------3---5-------------3---5-----------3---5--------|
|-3-5---------5--5------------5--5--------------5--5------------5--5-|
|--------------------------------------------------------------------|
|--------------------------------------------------------------------|

|------------------------|  |-------------------------------------------|
|------------------------|  |-------------------------------------------|
|-5----7----3--5----0-0--|  |-5----7------------10-10--9-9--7-7--5-5\---|
|-5----7----3--5----0-0--|x3|-5----7------------10-10--9-9--7-7--5-5\---|
|-3----5-----------------|  |-3----5----5h6p5---8--8---7-7--5-5--3-3\---|
|------------------------|  |----------------8--------------------------|
Добавлено: 30.08.2013
Другие материалы по этой песне:
  • Аккорды и текст

Страница создана 23.07.2013
http://primanota.ru/alistair-lindsay/flat-head-four-chords.htm
Привет, Гость.
Предлагаем пройти революционный курс по гитаре.
Подарок от PrimaNota.Ru, забирай!