PrimaNota.ru - самый крупный в мире бесплатный архив песенных текстов, аккордов, табулатур и нот


Alison Krauss - I Will - текст песни, таба, видео

Регистрация Запомнить меня
Войти через:  Facebook Google Twitter Vk Yandex Mail.ru

Alison Krauss - I Will - текст песни, таба, видео

Печатать
Просмотров: 126
Авторы: John Lennon, Paul McCartney

This Tab was tabbed out completely by me, Rydog. It's actually the revised 
version of the last time I submitted the song, "I Will" by Alison Krauss. It 
should be the full song.  If you have corrections, e-mail me at 
rydog08@hotmail.com.

"I Will"

e:--8h9--11-11-14-11/13--13/9---8--8/9--8-8--8h9-2/4--4-4-4-2-1-|
B:------------------------------9--9------------------4---------|
G:--------------------------------------------------------------|
D:--------------------------------------------------------------|
A:--------------------------------------------------------------|
E:--------------------------------------------------------------|

E:||----4-1-----2------4-1---4--4-9-6-2----4-2-1------4-9-6-2---------||
B:||1-2-----2-4----1-2-----2------------4-------2-1-2---------4--2-1-2||
G:||.----------------------------------------------------------------.||
D:||.----------------------------------------------------------------.||
A:||------------------------------------------------------------------||
E:||------------------------------------------------------------------||

e:-6h4-6-8-9-9\--------------------6h4-6-8-11-9\---------------9-8-6/8|
B:-------------2-4-6--7h6-7-9-11-9----------------2-4-6--8-8-8--------|
G:--------------------------------------------------------------------|
D:--------------------------------------------------------------------|
A:--------------------------------------------------------------------|
E:--------------------------------------------------------------------|

e: -----4-1-----2------4-1---4--4-9-6-2---4-2-1--------4-9-6-2---------|
B: -1-2-----2-4----1-2-----2------------4-------2-1-2----------4--2-1-2|
G: --------------------------------------------------------------------|
D: --------------------------------------------------------------------|
A: --------------------------------------------------------------------|
E: --------------------------------------------------------------------|

E:-8h9-11-11-11-11-11\9-9-8-8-9-9/11-||
B:-----------------------------------||
G:----------------------------------.||
D:----------------------------------.||
A:-----------------------------------||
E:-----------------------------------||


Tabbed by Rydog, using Tab Master 1.0
     
Добавлено: 29.07.2013
Другие материалы по этой песне:
  • Аккорды и текст

Страница создана 05.07.2012
http://primanota.ru/alison-krauss/i-will-chords.htm
Привет, Гость.
Предлагаем пройти революционный курс по гитаре.
Подарок от PrimaNota.Ru, забирай!