PrimaNota.ru - самый крупный в мире бесплатный архив песенных текстов, аккордов, табулатур и нот


Alison Krauss and Union Station - Dimming Of The Day - таба, видео

Регистрация Запомнить меня
Войти через:  Facebook Google Twitter Vk Yandex Mail.ru

Alison Krauss and Union Station - Dimming Of The Day - таба, видео

Печатать
Просмотров: 104
Уроки эстрадного вокала в Санкт-Петербурге
Авторы музыки: Richard Thompson
Авторы текста: Richard Thompson
-------------------------------------------------------------------------------
  Dimming of the Day- Alison Krauss and Union Station
-------------------------------------------------------------------------------
Tabbed by:SUZYq
E-mail:

I am only thirteen and do these tabs by ear so I am not sure how they will sound. 
I hope you guys like this one. My first one is the intro to Roll Away Your Stone
by Mumford And Sons.Check it out!:)
Tuning:

e|-----------------------------------------------------------------------------------|
B|-----------------------------------------------------------------------------------|
G|-------------------------0--0--0h2--2--0-------------------------------------------|
D|--0---------------------------------------4--2--0--2--4/5--5\4--2--0---------------|
A|-----3--2--0------0h2-------------------------------------------------2--0---------|
E|--------------3-------------------------------------------------------------3--3---|




************************************

| /   slide up
| \   slide down
| h   hammer-on
| p   pull-off
| ~   vibrato
| +   harmonic
| x   Mute note
| b   Bend
| pb  Pre-bend
| br  Bend release
| pbr Pre-bend release
| brb Bend release bend

************************************
Добавлено: 25.12.2015
Другие материалы по этой песне:
  • Аккорды и текст

Страница создана 25.12.2015
http://primanota.ru/alison-krauss-and-union-station/dimming-of-day-chords.htm
Привет, Гость.
Предлагаем пройти революционный курс по гитаре.
Подарок от PrimaNota.Ru, забирай!