PrimaNota.ru - самый крупный в мире бесплатный архив песенных текстов, аккордов, табулатур и нот


Alison Kraus - Unionhouse Branch (feat. Union Station) - таба, видео

Регистрация Запомнить меня
Войти через:  Facebook Google Twitter Vk Yandex Mail.ru

Alison Kraus - Unionhouse Branch (feat. Union Station) - таба, видео

Печатать
Просмотров: 122
(/) Slide Up


E|---------------------------------------------------------------------------|
B|---------------------------------------------------------------------------|
G|-----------0-2-0-----------0-----------------------------------------------|
D|---0-2-0-2-------2-0---0-2---4-2-0-1-2-0-----------------------------------|
A|-2-------------------2-------------------2-0---------------2---------4-----|
E|---------------------------------------------3-2-0-2-3-0-3---3/5-0-5---5/7-|



E|-----------------------------------------------|
B|-----------------------------------------------|
G|-----------------------------------------------|
D|-----------------------0-2-5-4-2-0-1-2-0-------|
A|-2-1-2-4-5-4-2-1-2-1-2-------------------2-----|
E|-------------------------------------------3-0-|

This is my first tab so be easy on me ^^
Добавлено: 13.07.2013
Другие материалы по этой песне:
  • Аккорды и текст

Страница создана 13.07.2013
http://primanota.ru/alison-kraus/unionhouse-branch-chords.htm
Привет, Гость.
Предлагаем пройти революционный курс по гитаре.
Подарок от PrimaNota.Ru, забирай!