PrimaNota.ru - самый крупный в мире бесплатный архив песенных текстов, аккордов, табулатур и нот


Алиса - Белая невеста - аккорды и текст, видео

Регистрация Запомнить меня
Войти через:  Facebook Google Twitter Vk Yandex Mail.ru

Алиса - Белая невеста - аккорды и текст, видео

Печатать
Просмотров: 1054
Авторы музыки: Игорь Чумычкин
Авторы текста: Константин Кинчев
Белая невеста
Алиса
Вступление

        2 раза    |          2 раза      |
3 ----------------|-----12-12------12-12-|
4 -----9------9-9-|-----12-12------12-12-|  2 раза
5 -----7------7-7------------|
6 -0-0---0000-----|-0-0-------0000-------|


Куплет

   rif1 :             |   
3 -2-2----------------|
4 -2-2----------------|
5 -0-0---------3-3----|
6 --------------5-5-0-|
  Душу в пятки унесло. 

                       | rif2 :   				 |
3 ---------------------|-------9------------|-------9------------|
4 -3--3----------------|-------9------------|-------9------------|
5 -3--3---------3-5----|-------7--5---5-----|-------7--5---5-----|
6 -1--1----------5-5-0-|-0-0--------7---7-5-|-0-0--------7---7-5-|
  Только высветил число  час. 
  rif1
  Под косой звенит трава.
  rif1                  rif2
  С плеч слетает голова враз.
  rif1
  Кто сберег, да все раздал
  rif1                   rif2
  Ясным в хороводе стал звезд.
  rif1
  Мы словно бубенцы с дуги,
  rif1                     rif2  
  Между нами только радуги мост.

3 -------------------------------------9997s9s7-|
4 -5-5-x-x-x-x-5-5-x-x-x-x-2-2-x-x-x-x-9997s9s7-|
5 -5-5-x-x-x-x-5-5-x-x-x-x-2-2-x-x-x-x----------|
6 -3-3-x-x-x-x-2-2-x-x-x-x-0-0-x-x-x-x----------|
    Лишь верой укрепи  в  пути, 

3 -------------------------4-4-----------|
4 -5-5-x-x-x-x-5-5-x-x-x-x-4-4-----------|
5 -5-5-x-x-x-x-5-5-x-x-x-x-2-2-----------|
6 -3-3-x-x-x-x-2-2-x-x-x-x---------------|
     Я   не  спешу,     у нас все впереди.

3 -----9-9----------------9-9----------|
4 -----9-9---7--7-7-------9-9---7--7-7-|
5 -0p7-7-7---7--7-7---0p7-7-7---7--7-7-|
6 ---------5----7-7-----------5----7-7-|
      Белая невеста, постой,

3 ------5--5----------9--9-------------------|
4 ------5--5----------9--9------------7--7-7-|
5 ------3--3----------7--7------------7--7-7-|
6 ----------------------------------5----7-7-|
  Ты сама по себе, но я танцую с тобой.

3 ------5--5---9--9--------------------------|
4 ------5--5---9--9--------------------------|
5 ------3--3---7--7----------------5---------|
6 --------------------------577577577578-757-|
    Собери меня в дорогу домой.

3 ------5--5----------9--9------ -------------|
4 ------5--5----------9--9--------------------|
5 ------3--3----------7--7--------------------|
6 --------------------------5-7-7-5-7-7-5-7-7-|
          Танцуй со мной,       танцуй со мной,

3 -----5-5--------------9-9-9---------|
4 -----4-4-----5-5------9-9-9---------|
5 -0p7-----75--4-4-75---7-7-7---------|
6 -----------7-------75-------7654321-|

3 -----5-5-----------------|
4 -----4-4-----5-5-------2-|
5 -0p7-----75--4-4-75----2-|
6 -----------7-------75--0-|
                          Белая невеста.

3 -----5-5--------------9-9-9---------|
4 -----4-4-----5-5------9-9-9---------|
5 -0p7-----75--4-4-75---7-7-7---------|
6 -----------7-------75-------7654321-|

3 -----5-5-----------------|
4 -----4-4-----5-5-------2-|
5 -0p7-----75--4-4-75----2-|
6 -----------7-------75--0-|
                          
Далее отрывок расписан на 2 гитарах : до 5-ой струны - обычная ,
после 5-ой - басуха. Играйте как больше нравится (хотя можно и хитрым образом
совместить).

3 ------------------4----------------------3--------|
4 ----------------2----------------------2----------|
5 --------------------------------------------------|
6 -------------0-0-0--0-0-0----0-0-0---0-0-0--0-0-0-|
  Взлететь до времени,      Не бросив семени,

3 ----------------2------------------------4--------|
4 --------------2------------------------2----------|
5 --------------------------------------------------|
6 ---0-0-0-----0-0-0--0-0-0----0-0-0---0-0-0--0-0-0-|
  Да окропить рассвет         разрывом глаз.
                       
3 ---------------------4----------------------3---------|
4 ------------------2-----------------------2-----------|
5 ------------------------------------------------------|
6 --0-0-0---------0-0-0---0-0-0----0-0-0---0-0-0--0-0-0-|
  В охват взять сразу все,     Да потерять свое,

                                             | одна гитара   | 
3 ----------------2------------------------4-----------------|
4 --------------2------------------------2----5-0-5-0-5------|
5 --------------------------------------------3-0-3-0-3------|
6 ---0-0-0-----0-0-0--0-0-0----0-0-0---0-0-0-----------------|
    Задумал - порешил            Один у нас.


rif3 : 
                                           |    2 раза        |
3 -----------------------------------------|-----5-----7------|
4 -----------------------------------------|-0-005--079--0797-|
5 -5-555-5--3---3-3-3---3--5-555-5-3-333-3--------|
6 ------------------------------------------------|
   Зелья   чад коромыслом      унес с собой.

   rif3
   Запорошены мысли винта пургой.

rif4 :
3 -----------------------------------------|
4 ------------------------------5-0-5-0-5--|
5 -5-555-5--3-3-3-3-3--5-555-5--3-0-3-0-3--|
6 -----------------------------------------|
     Ой,     неудобно.

     rif4
     Ой, неудобно.

(дальще играется как расписано выше)

Лишь небо знает наперед,
Как занесло и как нас всех несет.


Белая невеста, постой,
Ты сама по себе, но я танцую с тобой.
Собери меня в дорогу домой.
Танцуй со мной, слышишь, танцуй со мной,
Белая невеста.


Душу в пятки унесло.
Только высветил число час.
Под косой звенит трава.
С плеч слетает голова враз.
Кто сберег, да все раздал
Ясным в хороводе стал звезд.
Мы словно бубенцы с дуги,
Между нами только радуги мост.


Лишь верой укрепи в пути,
Верой укрепи!






Добавлено: 18.03.2012
Другие материалы по этой песне:

Страница создана 07.03.2012
http://primanota.ru/alisa-2/belaya-nevesta-chords.htm
Привет, Гость.
Предлагаем пройти революционный курс по гитаре.
Подарок от PrimaNota.Ru, забирай!