PrimaNota.ru - самый крупный в мире бесплатный архив песенных текстов, аккордов, табулатур и нот


Алина Орлова - Vasaris - аккорды и текст, видео

Регистрация Запомнить меня
Войти через:  Facebook Google Twitter Vk Yandex Mail.ru

Алина Орлова - Vasaris - аккорды и текст, видео

Печатать
Просмотров: 136
Vasaris
Алина Орлова
Em:

----------------------------
-----8------8------8------8-
----11-----11-----11-----11-
----------------------------
-7------7------7------7-----
----------------------------

Am:

----------------------------
----------------------------
-----7------5------7------5-
-----7------7------7------7-
----------------------------
-5------5------5------5-----

C:

----------------------------
----------------------------
----------------------------
----12-----10-----12-----10-
----10-----10-----10-----10-
-8------8------8------8-----

B: обычный с барре на седьмом произвольным перебором, чередуя на первой струне 7-й и 8-1 лады

Все остальное произвольным перебором, С на Vasaris можно без барре, чередуя 1-й и 3-й лады на второй струне.
 Да, и после песни напев - там идет Em(VII)-D(V)-Am(V)-C(III)

Tavo miestas-betonininės kaladelės Твой город-бетонные колодки
Kvailos varnos vis prišala prie laidų Глупые вороны все время примерзают к проводам
Aš naminė tavo kanarelė Я твоя домашняя канарейка
Man nešalta,tik truputį neramu. Мне не холодно, лишь чуть-чуть неспокойно

Ei,maitink iš delno mane Эй, корми меня с ладони
Šis narvelis per ankštas ar ne? Эта клетка слишком тесная, да?
Gink savo liūdesį lauk, Гони свою грусть вон
Ar žinai,vasaris nebus amžinai, Ведь знаешь, февраль не будет вечно,
vasaris nebus amžinai... февраль не будет вечно...

Tavo miestas betonininės kaladelės Твой город-бетонные колодки
Kvailos varnos pergraužia laidus Глупые вороны все время перегрызают провода
Rytas sirpsta,o lange vasario mėlis Утро спеет,а в окне февральская синь
Išvažiuokim į pietus! Давай уедем на юг!

Ei,maitink iš delno mane Эй, корми меня с ладони
Šis narvelis per ankštas ar ne? Эта клетка слишком тесная, да?
Gink savo liūdesį lauk, Гони свою грусть вон
Ar žinai,vasaris nebus amžinai, Ведь знаешь, февраль не будет вечно,
vasaris nebus amžinai... февраль не будет вечно...
Добавлено: 01.05.2016
Другие материалы по этой песне:
  • Аккорды и текст

Страница создана 01.05.2016
http://primanota.ru/alina-orlova-2/vasaris-chords.htm
Привет, Гость.
Предлагаем пройти революционный курс по гитаре.
Подарок от PrimaNota.Ru, забирай!