PrimaNota.ru - самый крупный в мире бесплатный архив песенных текстов, аккордов, табулатур и нот


Alien City - Information Overdose - таба, видео

Регистрация Запомнить меня
Войти через:  Facebook Google Twitter Vk Yandex Mail.ru

Alien City - Information Overdose - таба, видео

Печатать
Просмотров: 32
Band: Alien City (http://www.discogs.com/artist/3128701-Alien-City-2)
Song: Information Overdose
Tabber: Andrew Biles
Tuning: standard


G (one strum followed by open e and feedback)


(probably) bass:
|-----------|-----------|-----------------|-------------------
|-----------|-----------|-----------------|-------------------
|-----------|-----------|-----------------|-------------------
|-----------|-----------|-----------------|-------------------
|-----------|-----------|-----------------|-------------------
|-3---------|-1---------|-3-3-3-3-3---x-x-|-1-1-1-1-1-0-1/3---


main riff:
|----------------------------------------3----------1----
|----------------------------------------3----------1----
|----------------------------------------4----------2----
|----------0-------------------------(5)-5------(3)-3----
|----2--3--------------------------------5----------3----
|-3-----------1-1-1-1-1-(0)-(1/3)--3-----3----1-----1----


You're just an information overdose
and you feel you know somebody I'm awfully blessed but really you know nothing
you're just soaking it up through the eyes and ears
and you've done so much already that you're not even here
information overload


|------------------------
|------------------------
|------------------------
|----------0-------------
|----2--3----------------
|-3-----------1-1-1-1-1--

      C                    Am                      (G riff)
And I feel like I just got hit by a nuclear bomb

       C                         Am
Yeah I feel like I just blown to pieces, wonder what went wrong


(back to main riff)


you're just an information overdose
and you're just another suck in the latest clothes
information overdose


break: C, F, Fm (x2)
|-----------------------------------------
|-------1-----------------1----------1----
|-----------------0-------2----------1----
|----2---------2--------3-3-------3--3----
|-3---------3-----------------------------
|--------------------1----------1---------

|--------------------------3----
|-1----3---------1----3----3----
|-0----0----0----0----0----4----
|-2----4----0----2----4----5----
|-3----5----2----3----5----5----
|-----------3--------------3----


solo (2 guitars - improvise) - rhythm includes all of the above sequences


(3:35) (main riff)
your just an information overdose
and you're just another sucker in the latest clothes
information overdose
all the time you're dead inside and nobody knows

(break sequence to end)
Добавлено: 20.07.2015
Другие материалы по этой песне:
  • Аккорды и текст

Страница создана 20.07.2015
http://primanota.ru/alien-city/information-overdose-chords.htm
Привет, Гость.
Предлагаем пройти революционный курс по гитаре.
Подарок от PrimaNota.Ru, забирай!