PrimaNota.ru - самый крупный в мире бесплатный архив песенных текстов, аккордов, табулатур и нот


Alien Ant Farm - Pink Tea - текст песни, таба, видео

Регистрация Запомнить меня
Войти через:  Facebook Google Twitter Vk Yandex Mail.ru

Alien Ant Farm - Pink Tea - текст песни, таба, видео

Печатать
Просмотров: 151
Alien Ant Farm - Pink Tea
From the Album "Greatest Hits" (1999)
tabbed by jhand

Tuning - DGCFAD

Intro - Gtr. 1 (Heavy Distortion) 
D|-----------------|-------------------|------------------|-------------------|
A|-----------------|-------------------|------------------|-------------------|
F|--4---5\---------|--4--4--5--2-------|--4---4-5\--------|--4--4--5--2-------|
C|--4---5\---------|--4--4--5--2-------|--4---4-5\--------|--4--4--5--2-------|
G|--2---3\--0-2h3--|--2--2--3--0-0-2h3-|--2---2-3\--0-2h3-|--2--2--3--0-0-2h3-|
D|----------1------|-------------1-----|------------1-----|-------------1-----|

D|-----------------|------------------|----------------|---------------------------|
A|-----------------|------------------|----------------|---------------------------|
F|-4---4-5\--------|-4--4--5--2-------|-4---4-5\-------|-4--4--5--2-----4----3---2-|
C|-4---4-5\--------|-4--4--5--2-------|-4---4-5\-------|-4--4--5--2--3--4--2-3-1-2-|
G|-2---2-3\-0-2h3--|-2--2--3--0-0-2h3-|-2---2-3\-0-2h3-|-2--2--3--0--3--2--2-1-1-0-|
D|----------1------|------------1-----|----------1-----|-------------1-----0-------|

Verse 1 (PM all single notes)
D|------------------|-------------------|------------------|-------------------|
A|------------------|-------------------|------------------|-------------------|
F|---4---5\---------|-------------------|------------------|-------------------|
C|---4---5\--4-2----|-------------4-2---|------------4-2---|-------------4-2---|
G|---2---3\------3--|--2--2--3--0-----3-|--2--2--3~------3-|--2--2--3--0-----3-|
D|------------------|-------------------|------------------|-------------------|
    
D|------------------|-------------------|------------------|--------------------|
A|------------------|-------------------|------------------|--------------------|
F|------------------|-------------------|------------------|--------------------|
C|------------4-2---|-------------4-2---|------------4-2---|--------------------|
G|--2--2--3~------3-|--2--2--3--0-----3-|--2--2--3~------3-|--2--2--3--0---5NH--|
D|------------------|-------------------|------------------|---------------5NH--|

Pre-Chorus (Gtr. 2: clean w/ heavy reverb, strum # of times indicated)

    8x   8x     8x   8x 
D|------------|--------------|
A|------------|-------------o|
F|--6----\4---|-4----\3------| play all 2x
C|------------|--------------| slides on 1st note
G|--4----\2---|-2----\1-----o|
D|------------|--------------|
   "So we stir, and we stir"

    8x   8x      8x   8x      8x   8x      8x   8x         Last bar Gtr 1 (dist)
D|------------|------------|------------|--------------|   |--------------------|
A|--7----/8---|------------|------------|--------------|   |--------------------|
F|------------|--4----\3---|--6----/9---|--9----/11----|   |--0-----------------|
C|--4----/5---|------------|------------|--------------|   |--0-2h4-4-4-2h4-4-4-|
G|------------|--2----\1---|--4----/7---|--7----/9-----|   |--0-2h4-4-4-2h4-4-4-|
D|------------|------------|------------|--------------|   |----2---2-2-2---2-2-|


Chorus
D|-------------------------|-------------------------|--------------------------|
A|-------------------------|-------------------------|--------------------------|
F|-------------------------|-------------------------|--------------------------|
C|--6--6--6-6--x-6--6--6-6-|--8--8--8-8--x-8--8--8-8-|--7--7--7-7--x-7--7--7-7--|
G|--4--4--4-4--x-4--4--4-4-|--8--8--8-8--x-8--8--8-8-|--7--7--7-7--x-7--7--7-7--|
D|--4--4--4-4--x-4--4--4-4-|--6--6--6-6--x-6--6--6-6-|--5--5--5-5--x-7--7--7-7--|
   "Spring"                   "Is Here"                  "And We're"

D|---------------------------|
A|--------------------------o|
F|--4--4--4-4--x-3--3--3-3---| Play 2x
C|--4--4--4-4--x-4--4--4-4---|
G|--2--2--2-2--x-1--1--1-1--o|
D|---------------------------|
   "In full swing"


Verse 2 (PM single notes)
D|------------------|-------------------|------------------|-------------------|
A|------------------|-------------------|------------------|-------------------|
F|---4---5\---------|--4--4--5--2-------|------------------|-------------------|
C|---4---5\---------|--4--4--5--2-------|------------4-2---|-------------4-2---|
G|---2---3\--0-2h3--|--2--2--3--0-0-2h3-|--2--2--3~------3-|--2--2--3--0-----3-|
D|-----------1------|-------------1-----|------------------|-------------------|
                                                                         no PM
D|------------------|-------------------|------------------|-------------------|
A|------------------|-------------------|------------------|-------------------|
F|------------------|-------------------|------------------|-------------------|
C|------------4-2---|-------------4-2---|------------4-2---|-------------------|
G|--2--2--3~------3-|--2--2--3--0-----3-|--2--2--3~------3-|--2--2--3--0-0-2h3-|
D|------------------|-------------------|------------------|-------------1-----|
    Heavy sound
D|------------------|-------------------|------------------|-------------------|
A|------------------|-------------------|------------------|-------------------|
F|---4---5\---------|--4--4--5--2-------|--4--4--5\--------|--4--4--5--2-------|
C|---4---5\---------|--4--4--5--2-------|--4--4--5\--------|--4--4--5--2-------|
G|---2---3\--0-2h3--|--2--2--3--0-0-2h3-|--2--2--3\--0-2h3-|--2--2--3--0--5NH--|
D|-----------1------|-------------1-----|------------1-----|--------------5NH--|

Play Pre-Chorus & Chorus

Repeat Chorus & Guitar 2 starts solo (w/ distortion): 

    TP all notes (this line)     
D|------------|--------------|-------------|--------------|
A|-------9----|-8----14------|-------9--8--|--------9-----|
F|--6---------|--------------|--9----------|--8-----------|
C|-------6----|-5----11------|-------6--5--|--------6-----|
G|--4---------|--------------|--7----------|--6-----------|
D|------------|--------------|-------------|--------------|

D|------------------|--------9~-----|--11b12---------|--9b11-----------|
A|------9-----9-----|--8~--------8--|----------10~-9-|-----------9~\---|
F|--6-------6---6---|---------------|----------------|-----------------|
C|------------------|---------------|----------------|-----------------|
G|------------------|---------------|----------------|-----------------|
D|------------------|---------------|----------------|-----------------|

 *Gtr1 plays intro    PM***************
D|------------------|-------------------|------------------------------|
A|--5--6------------|-------------------|------------------------------|
F|----------3h4p3-0-|-3-0-------0-------|---------------------------11-|
C|------------------|-----3-0-3---3-0---|----------------9-11-13-14----|
G|------------------|-----------------2-|---------9-11-12--------------|
D|------------------|-------------------|--9-11-12---------------------|

                                      TP   TP  TP  TP  TP  TP  TP
D|----------------------|---16b17r16--14-|-13--14--16--18--19--18-|
A|----------------------|----------------|------------------------|
F|-13-14-14b16-14-13-11-|-14-------------|------------------------|
C|----------------------|----------------|------------------------|
G|----------------------|----------------|------------------------|
D|----------------------|----------------|------------------------|

D|-19-19b21r19--19-21b23-19-|-18-19-21--13-14-16\--|-------|
A|--------------------------|----------------------|-------|
F|--------------------------|----------------------|-------|
C|--------------------------|----------------------|-------|
G|--------------------------|----------------------|-------|
D|--------------------------|----------------------|-------|

Guitar 1 (Last 2 Solo Bars):
    8x   8x     8x   8x 
D|------------|--------------|
A|------------|--------------|
F|--6----\4---|-4----\3------| 
C|------------|--------------| 
G|--4----\2---|-2----\1------|
D|------------|--------------|

Guitar 2:
Play Pre-Chorus, then
Guitar 1:
Play Chorus 2x with Guitar 1 playing this during the repeat:

    TP all notes (this line)     
D|------------|--------------|-------------|--------------|
A|-------9----|-8----14------|-------9--8--|--------9-----|
F|--6---------|--------------|--9----------|--8-----------|
C|-------6----|-5----11------|-------6--5--|--------6-----|
G|--4---------|--------------|--7----------|--6-----------|
D|------------|--------------|-------------|--------------|

Finale:
D|-----------------|---------------------------|
A|-----------------|---------------------------|
F|-4---5\----------|-4--4--5--2-----4----3---2-|
C|-4---5\----------|-4--4--5--2--3--4--2-3-1-2-|
G|-2---3\---0-2-3--|-2--2--3--0--3--2--2-1-1-0-|
D|----------1------|-------------1-----0-------|

Key:

/ or \ - Slide up to or down from note
TP     - Tremelo picking
b      - bend
r      - release
PM     - Palm Mute
h      - hammer-on
p      - pull-off
NH     - Natural Harmonic (Lightly touch string over metal fret & pick)

Lyrics:
Our bright days make Sundays
And tea time is always
In short time with sunlight
We're gonna wait…

To drink a cup of lots of love
Would hopefully erase all the doubt
And you would be mine dear
And I will drink and only

Spring is here, and we're in full swing
Spring is here, and we're in full swing

Now clouds pour thick showers
And wash way drought's powers
So crops thrive twelve feet high
They're potent and get me high

So we stir and we stir
And mix a drink of leaves so pure
Three cubes of cane represent
Our short but sweet relations

Spring is here, and we're in full swing
Spring is here, and we're in full swing
Добавлено: 20.03.2012
Другие материалы по этой песне:
  • Аккорды и текст

Страница создана 20.03.2012
http://primanota.ru/alien-ant-farm/pink-tea-chords.htm
Привет, Гость.
Предлагаем пройти революционный курс по гитаре.
Подарок от PrimaNota.Ru, забирай!