PrimaNota.ru - самый крупный в мире бесплатный архив песенных текстов, аккордов, табулатур и нот


Alien Ant Farm - Never Meant - текст песни, таба, видео

Регистрация Запомнить меня
Войти через:  Facebook Google Twitter Vk Yandex Mail.ru

Alien Ant Farm - Never Meant - текст песни, таба, видео

Печатать
Просмотров: 119
Band- Alien Ant Farm
Song- Never Meant

Standard Tuning [Eadgbe]
Delay setting at 330-350

Verse p1:[palm muted partly/harmonics(only rest your finger on the string)]
e|------------|
b|------------|
g|------------|
d|-<8>-<7>----|
a|------------|
E|------------|

Verse p2:[clean/delay(330-350) strum low to high]
e|-----5------|
b|-----5------|
g|-----5------|
d|-----7------|
a|-----7------|
E|-----5------|

Verse p3:[[might be bass]/plays harmonics]
e|--------<12>------------|
b|-----------<12>---------|
g|-----------------<12>---|    Note: it changes  a little during the second
d|-<12>---------<12>------|          verse, but I didn't really care for
a|-----<12>---------------|          figuring it out.
E|------------------------|

Chorus 1:[clean/delay on * notes]
e|-3-5-0--8---3-1-0--|
b|-3-5-0--8---3-1-0--|
g|-4-5-1--9---4-2-1--|
d|-5-7-2--10--5-3-2--|
a|-5-7-2--10--5-3-2--|
E|-3-5-0--8---3-1-0--|
          *
Guitar Solo:
e|----------------------------------------------------------------|
b|----------------------------------------------------------------|
g|----------------------------------------------------------------|
d|----------------------------2--2------------3-----2------2------|
a|-----3-----------3---2--3-5------3--------2---2-3----3-0---0----|
E|-3-5---5-3b--3-5---5---------------4b--5---------------------0--|

Chorus 2:[clean/delay on * notes]
e|-3-5-0--8---3-5-0--8---3-5-7--8---3-1-0--|
b|-3-5-0--8---3-5-0--8---3-5-7--8---3-1-0--|
g|-4-5-1--9---4-5-1--9---4-5-8--9---4-2-1--|
d|-5-7-2--10--5-7-2--10--5-7-9--10--5-3-2--|
a|-5-7-2--10--5-7-2--10--5-7-9--10--5-3-2--|
E|-3-5-0--8---3-5-0--8---3-5-7--8---3-1-0--|
          *          *          *
Chorus 3:[light distortion/strum these notes]
e|------------|
b|------------|
g|------------|
d|--7-5-5-6---|
a|--7-3-5-5---|
E|--5-3-3-4---|

Ending:
e|-5-3-1-0-0-----3-5-0--8---3-1--|
b|-5-3-1-0-3-----3-5-0--8---3-1--|
g|-5-4-2-1-2-----4-5-1--9---4-2--|
d|-7-5-3-2-0-----5-7-2--10--5-3--|
a|-7-5-3-2-------5-7-2--10--5-3--|
E|-5-3-1-0-------3-5-0--8---3-1--|
Добавлено: 14.03.2012
Другие материалы по этой песне:
  • Аккорды и текст

Страница создана 28.02.2012
http://primanota.ru/alien-ant-farm/never-meant-chords.htm
Привет, Гость.
Предлагаем пройти революционный курс по гитаре.
Подарок от PrimaNota.Ru, забирай!