PrimaNota.ru - самый крупный в мире бесплатный архив песенных текстов, аккордов, табулатур и нот


Alien Ant Farm - Hope - текст песни, таба, бас-таба, видео

Регистрация Запомнить меня
Войти через:  Facebook Google Twitter Vk Yandex Mail.ru

Alien Ant Farm - Hope - текст песни, таба, бас-таба, видео

Печатать
Просмотров: 178
----------------------------------------------------------------------------
                             Hope - Alien Ant Farm
----------------------------------------------------------------------------

I haven't listened to this cd in awhile but now that iv'e gone back to hear it i can
now say this cd is a classic because it still sounds awesome. Pretty surprised this
tab was'nt on the net so i decided to tab it myself. It sounds very close. Just for
the heck of it i put the strumming pattern for the intro and verse but you can use
any strumming pattern you want i guess. note that i obviously didn't tab the violen
part too.

Album:TruANT
Tabbed by: The Kids Killed ROCK
Email: rcuevas4@cox.net

Tuning:EADGBe

Intro and first verse
   ^ ^ v ^   ^ v ^ v ^   ^ v ^ v   ^ ^ ^
e|---------|-----------|---------|--------|repeat 6x until...
B|-7-7-7-7-|-7-7-7-7-7-|-3-3-3-3-|-3-3-3--|
G|-8-8-8-8-|-8-9-8-9-8-|-4-4-4-4-|-6-4-6--|
D|-9-9-9-9-|-9-9-9-9-9-|-5-5-5-5-|-5-5-5--|
A|-9-9-9-9-|-7-7-7-7-7-|-5-5-5-5-|-3-3-3--|
E|-7-7-7-7-|-7-7-7-7-7-|-3-3-3-3-|-3-3-3--|

  
  Turn on your street and see a car...
e|----------------------------------------------|
B|-----------------0----------------------------|
G|-----------------2--------------6-----------2-|
D|-4---------------2--------------4-----------2-|
A|-4---------------0--------------4-----------0-|
E|-2---------------0----------------------------|

  
  Finding our house...
e|---------|-----------|---------|--------|repeat 6x then...
B|-7-7-7-7-|-7-7-7-7-7-|-3-3-3-3-|-3-3-3--|
G|-8-8-8-8-|-8-9-8-9-8-|-4-4-4-4-|-6-4-6--|
D|-9-9-9-9-|-9-9-9-9-9-|-5-5-5-5-|-5-5-5--|
A|-9-9-9-9-|-7-7-7-7-7-|-5-5-5-5-|-3-3-3--|
E|-7-7-7-7-|-7-7-7-7-7-|-3-3-3-3-|-3-3-3--|


  Turn on your street and see a car...
e|--------------------------------------|
B|-------------0------------------------|
G|-------------2--------------6-------2-|
D|-4-----------2--------------4-------2-|
A|-4-----------0--------------4-------0-|
E|-2-----------0------------------------|

  
  One where I thought mine should be parked...
e|--------------------------------0---------|
B|----------0----------0----------0---------|
G|----------2----------6----------2---------|
D|-4--------2----------4----------2---------|
A|-4--------0----------4--------------------|
E|-2----------------------------------------|


  CHORUS                                     BRIDGE
e|------------------------|Repeat 2x then... |-------------|
B|-------------------0----|                  |-------------|
G|-4-----2--2--4-----2----|                  |-4-----4-----|
D|-4--5--2--2--4--5--2--4-|                  |-4--5--4--5--|
A|-2--5--0--0--2--5--0--4-|                  |-2--5--2--5--|
E|----3--0--0-----3-----2-|                  |----3-----3--|


 Trenches dug outside of...
   ^ ^ v ^   ^ v ^ v ^   ^ v ^ v   ^ ^ ^
e|---------|-----------|---------|--------|repeat 8x until...
B|-7-7-7-7-|-7-7-7-7-7-|-3-3-3-3-|-3-3-3--|
G|-8-8-8-8-|-8-9-8-9-8-|-4-4-4-4-|-6-4-6--|
D|-9-9-9-9-|-9-9-9-9-9-|-5-5-5-5-|-5-5-5--|
A|-9-9-9-9-|-7-7-7-7-7-|-5-5-5-5-|-3-3-3--|
E|-7-7-7-7-|-7-7-7-7-7-|-3-3-3-3-|-3-3-3--|


  CHORUS 2                                   BRIDGE
e|------------------------|Repeat 2x then... |----------|
B|-------------------0----|                  |----------|
G|-4-----2--2--4-----2----|                  |-4--------|
D|-4--5--2--2--4--5--2--4-|                  |-4-4--4---|
A|-2--5--0--0--2--5--0--4-|                  |-2-4--4---|
E|----3--0--0-----3-----2-|                  |---2--2---|


  Turn on your street and see a car...
e|-------------------------------------|
B|-------------------------------------|
G|-4--7-----4-----4-----4-----4--------|
D|-4--7--5--4--5--4--5--4--5--4--------|
A|-2--5--5--2--5--2--5--2--5--2--------|
E|-------3-----3-----3-----3-----------|


GUITAR SOLO
e|-------------------------------------------------------------|
B|-------------------------------------------------------------|
G|-------------------------------------------------------------|
D|-9-9-9---7---9-9-9---7---------------------------------------|
A|-------9---9-------9---9-10-10-10----9----10-10-10----9------|
E|----------------------------------10---10----------10---10---|


e|-----------------------------------|
B|-----------------------------------|
G|-------7---8-------7-----12-14-14--|
D|-9-9-9---9---9-9-9---9---12-14-14--|
A|-------------------------10-12-12--|
E|-----------------------------------|


  CHORUS 3                                   BRIDGE 2
e|------------------------|Repeat 4x then... |-----------|
B|-------------------0----|                  |-----------|
G|-4-----2--2--4-----2----|                  |--------4--|
D|-4--5--2--2--4--5--2--4-|                  |--4--4--4--|
A|-2--5--0--0--2--5--0--4-|                  |--4--4--2--|
E|----3--0--0-----3-----2-|                  |--2--2-----|

----------------------------------------------------------------------------
LYRICS

Hope is the thing I'm feeling today.
Walking a mile out of the way,
I still might make it through.
Turn on your street and see a car.
Finding our home a house of pain.
See in an instant things can change, and never feel the same.
Turn on your street and see a car.
One where I thought mine should be parked.

CHORUS
If that's what you demand, then that's what I'll deliver.
If that's what you demand, then that's just what I'll give you.

Trenches dug out the side of the road.
Remember the smell of earth in piles.
And there was nothing else to do but walk for miles, so I walked for miles.

CHORUS 2
If that's what you demand, then that's what I'll deliver.
If that's what you demand, then that's just what I'll give you.

Turn on your street and see a car.
Someone I thought was a friend to me has ripped a hole in my life.
Someone I thought was a friend to me has gone and married my wife.

CHORUS 3
If that's what you demand, then that's what I'll deliver.
If that's what you demand, then that's just what I'll give you.
If that's your master plan, then I wish you two the best together.


| ^  downstroke  
| v  upstroke
| /  slide up
| \  slide down
| h  hammer-on
| p  pull-off
| x  Mute note
============================================================================
Добавлено: 05.03.2012
Другие материалы по этой песне:
  • Аккорды и текст

Страница создана 29.02.2012
http://primanota.ru/alien-ant-farm/hope-chords.htm
Привет, Гость.
Предлагаем пройти революционный курс по гитаре.
Подарок от PrimaNota.Ru, забирай!