PrimaNota.ru - самый крупный в мире бесплатный архив песенных текстов, аккордов, табулатур и нот


Alien Ant Farm - Bellman - таба, видео

Регистрация Запомнить меня
Войти через:  Facebook Google Twitter Vk Yandex Mail.ru

Alien Ant Farm - Bellman - таба, видео

Печатать
Просмотров: 120
Bellman new and unreleased song by AAF


Tuning: Standard
Clean Electric

Intro      strum..listen for timing 
e|--4----------------------------------------------------------------------|
B|--2------------7---------------------------------------------------------|
G|--1------------4---------------------------------------------------------|
D|--2------------6---------------------------------------------------------|
A|-------------------------------------------------------------------------|
E|-------------------------------------------------------------------------|

Part before Chorus
e|-------------------------------------------------------------------------|
B|-2-------1---------------------------------------------------------------|
G|-1-------1---------------------------------------------------------------|
D|-2-------2---------------------------------------------------------------|
A|-2-------2---------------------------------------------------------------|
E|-------------------------------------------------------------------------|

Chorus...listen for timing
e|--------------------4----------------------------------------------------|
B|--------------------2----------------------------------------------------|
G|-1------------------1----------------------------------------------------|
D|-2-----------------------------------------------------------------------|
A|-------------------------------------------------------------------------|
E|-------------------------------------------------------------------------|

End part of chorus
e|-------------------------------------------------------------------------|
B|-2-1---------------------------------------------------------------------|
G|-1-1---------------------------------------------------------------------|
D|-2-2---------------------------------------------------------------------|
A|-------------------------------------------------------------------------|
E|-------------------------------------------------------------------------|

Verse


Bridge...picked something like this...listen for timing
e|-------------------------------------------------------------------------|
B|---1---1----1----4---1--1-----1--4---------------------------------------|
G|-2---2---2-2---2---2--2---2-2--2-----------------------------------------|
D|-------------------------------------------------------------------------|
A|-------------------------------------------------------------------------|
E|-------------------------------------------------------------------------|

continued...strum this chord
e|-------------------------------------------------------------------------|
B|-2-----------------------------------------------------------------------|
G|-2-----------------------------------------------------------------------|
D|-4-----------------------------------------------------------------------|
A|-2----------------0-0-0-2-2-2-2-4-4-4-4-6-6-6-6--------------------------|
E|-------------------------------------------------------------------------|
                    [----------PM----------------]



Solo
e|------------12-----------------------------------------------------------|
B|---10-9---------14-12-12--------------------------12b-12b-12br-----------|
G|-9------9-----------------9-9/11--11/13-11-9---9----------------13s11----|
D|---------------------------------9-----------9---------------------------|
A|-------------------------------------------------------------------------|
E|-------------------------------------------------------------------------|

continued
e|-----------------------12-12-12-9-7-7--12-9-7-7--8-7---------------------|
B|-----------------------12-12-12-9-7-7--12-9-7-7------10-8----------------|
G|11-9-11-11b-11b-11br-------------------------------------11-9------------|
D|--------------------------------------------------------------10-9-------|
A|-------------------------------------------------------------------12-10-|
E|-------------------------------------------------------------------------|


Continued
e|------------------------------------------------------------------------|
B|------------------------------------------------------------------------|
G|------------------------------------------------------------------------|
D|------------------------------------------------------------------------]
A|------------------------------------------------------------------------|
E|-14-12------------------------------------------------------------------|

Chorus


End ..strum each once let last chord ring

e|------------------------------------------------------------------------|
B|-2--1--4----------------------------------------------------------------|
G|-1--1--1----------------------------------------------------------------|
D|-2--2--2----------------------------------------------------------------]
A|------------------------------------------------------------------------|
E|------------------------------------------------------------------------|

Добавлено: 18.04.2012
Другие материалы по этой песне:
  • Аккорды и текст

Страница создана 18.04.2012
http://primanota.ru/alien-ant-farm/bellman-chords.htm
Привет, Гость.
Предлагаем пройти революционный курс по гитаре.
Подарок от PrimaNota.Ru, забирай!