PrimaNota.ru - самый крупный в мире бесплатный архив песенных текстов, аккордов, табулатур и нот


Alien Ant Farm - Around The Blocklive - таба, видео

Регистрация Запомнить меня
Войти через:  Facebook Google Twitter Vk Yandex Mail.ru

Alien Ant Farm - Around The Blocklive - таба, видео

Печатать
Просмотров: 126
Alien Ant Farm
Around the Block (live)

Tuning: Standard     Note:struming is not showed 100%

e|-------------------------------------------------------------------------|
B|-------------------------------------------------------------------------|
G|-------------------------------------9-9-9-9-9---------------------------|
D|---9--xxx-4-4/6-6-xxx-6-6-6----------6-6-6-6-6-   a bunch of times-------|
A|---7--xxx-2-2/4-4-xxx-3-3-2----------7-7-7-7-7---------------------------|
E|---0--xxx---------xxx----------------------------------------------------|
   Intro and verse            part b4 the verse start..only time u use this

e|-------------------------------------------------------------------------|
B|-------------------------------------------------------------------------|
G|--9----------------------------------------------------------------------|
D|--9--a bunch of times----------------------------------------------------|
A|--7----------------------------------------------------------------------|
E|-------------------------------------------------------------------------|
"and this is what im show yeah"  play this instead of the 769 chord..yes it is different


e|-------------------------------------------------------------------------|
B|-------------------------------------------------------------------------|
G|--2-2--4-4-5-5-5-7-7-7---------------------------------------------------|
D|--2-2--x-x-x-x-x-x-x-x---------------------------------------------------|
A|--0-0--2-2-3-3-3-5-5-5---------------------------------------------------|
E|-------------------------------------------------------------------------|
part before chorus...listen for timing


Chorus:  background part in album but played like this live.
e|--------5-4--5-4--5-4--5-4--7-0--7-0--7-0-7-0----------------------------|
B|-------------------------------------------------------------------------|
G|-------------------------------------------------------------------------|
D|----------------------------------------------------------6--------6-----|
A|----------------------------------------------------0-7-9----0-7-9-------|
E|-------------------------------------------------------------------------|
                                                       end part of chorus


Verse again


part going into "Never be the one..."

e|-------------------------------------------------------------------------|
B|-------------------------------------------------------------------------|
G|--------9-9--11-11-13-13-------------------------------------------------|
D|---7-7--x-x--x--x--x--x--------------------------------------------------|
A|---x-x--7-7--9--9--11-11-------------------------------------------------|
E|---5-5-------------------------------------------------------------------|


Ok now "never be the one" that is bend 11 to sound like 12 then release bend
e|-------------------------------------------------------------------------|
B|-------------------------------------------------------------------------|
G|-----9--11-------11b(12)r11--9-11-9~--9--11------------9--11--13---------|
D|--2--x--x--11-------------------------x--x--11-11---7--x--x---x----------|
A|--2--7--9--x--------------------------7--9--x--x----x--7--9--11----------|
E|--0--------9--------------------------------9--9----5--------------------|

continued
e|---------------------------------------------------------------------------|
B|---------------------------------------------------------------------------|
G|-----9--11--13-------------------------------------------------------------|
D|--7--x--x--x---------------------------------------------------------------|
A|--x--7--9--11--------------------------------------------------------------|
E|--5------------------------------------------------------------------------|
Repeat again

Добавлено: 27.05.2012
Другие материалы по этой песне:
  • Аккорды и текст

Страница создана 27.05.2012
http://primanota.ru/alien-ant-farm/around-the-blocklive-chords.htm
Привет, Гость.
Предлагаем пройти революционный курс по гитаре.
Подарок от PrimaNota.Ru, забирай!