PrimaNota.ru - самый крупный в мире бесплатный архив песенных текстов, аккордов, табулатур и нот


Alicia Keys - Empire State Of Mind (Part Ii) - аккорды и текст, видео

Регистрация Запомнить меня
Войти через:  Facebook Google Twitter Vk Yandex Mail.ru

Alicia Keys - Empire State Of Mind (Part Ii) - аккорды и текст, видео

Печатать
Просмотров: 172
Empire State Of Mind (Part Ii)
Alicia Keys
(Capo 1)

           Bb7m   C     F                                  
   H     E E   E E     Q   E E E Q   E   Q   E E E  E  E E  
E||-------------------------||---8---------------------|--L----L--L--L-------------|
B||-------------------------||-------------------------|----------------11--10--8--|
G||-------------------------||------------------------|---------------------------|
D||--------------3----3--2--||-------------L----------|---------------------------|
A||--------------5----5--3--||---8----8--8--L--8----8--|--8----8--8------8------8--|
E||--------------6----6--3--||---8----8--8-----8----8--|--8----8--8------8------8--|


 Bb7m                                           
 E   E E E E Q   E   Q   E E E Q   E     Q   E E E E E E  
--L--------------L----------|-------------------------||-------------------------|
-------10-------------------|-------------------------||-------------------------|
-----------------L----------|-------------L----------||-------------L-----------|
--7--------7--7--L--7----7--|--7----7--7--L--7----7--||--7----7--7--L--3--3--2--|
--8--------8--8-----8----8--|--8----8--8-----8----8---||--8----8--8-----5--5--3--|
--6-------------------------|--6----------------------||--6-------------6--6--3--|

 F                                    Bb7m            
 ^                                    ^     ^ v       
 Q   E S E E E. S S   E S E E E. E E E   Q   E E Q   Q   
--------------------------|--------------------------|-----------------------|
--1----1--1-1---------1-1-|--1--1-1------------------|--3-------3--3---------|
--2----2-------2--0-------|----------2--0---0--0-----|--2----x--2--2----x----|
--3-----------------------|-----------------------3--|--3----x--3--3----x----|
------------3-------------|--3----------3------------|--1----x--1--1----x----|
--1---------------1-------|--1-----------------1--1--|-----------------------|

 F                                                        
                      ^                                   
 S S S S S S S S E E E E   Q   E S E E E. S S   E S E E E. S S E E  
--1---------------------------|--------------------------|---------------------------|
----1---1---------------------|--1----1--1-1---------1-1-|--1--1-1-------------------|
--2---2---2---2---------------|--2----2-------2--0-------|----------2--0---0-0-0-----|
--------3---3---3----3--3--2--|--3-----------------------|------------------------3--|
--------------3---3--5--5--3--|------------3-------------|--3----------3-------------|
---------------------6--6--3--|--1---------------1-------|--1------------------1--1--|

 Bb7m              F                                     
 ^     ^ v                             ^                
 Q   E E Q   Q     S S S S S S S S E E E E   Q   E S E E E. S S 
-----------------------|--1---------------------------|-------1--1-1--0------0-1-|
--3-------3--3---------|----1---1---------------------|--1---------------1-------|
--2----x--2--2----x----|--2---2---2---2---------------|--2-----------------------|
--3----x--3--3----x----|--------3---3---3----3--3--2--|--3-----------------------|
--1----x--1--1----x----|--------------3---3--5--5--3--|--3---------3-------------|
-----------------------|---------------------6--6--3--|------------------1-------|

                    Bb7m              F                   
                    ^     ^ v                            
 E S E E E. E E E   Q   E E Q   Q     S S S S S S S S E E E E  
--1--1-1--0---------------|-----------------------|--1---------------------------|
-------------1---1--1-----|--3-------3--3---------|----1---1---------------------|
-----------------------2--|--2----x--2--2----x----|--2---2---2---2---------------|
--------------------------|--3----x--3--3----x----|--------3---3---3----3--3--2--|
--3----------3---------3--|--1----x--1--1----x----|--------------3---3--5--5--3--|
--1-----------------1-----|-----------------------|---------------------6--6--3--|

 ^                                                       
 Q   E S E E E. S S   E S E E E. E E E   S S S S S S S S E E E E  
--1----1--1-1--0------0-1-|--1--1-1--0---------------|--1---------------------------|
--1---------------1-------|-------------1---1--1-----|--3-1---1---------------------|
--2-----------------------|-----------------------2--|--2---2---2---2------2--2--0--|
--3-----------------------|--------------------------|--------3---3---3----3-----2--|
------------3-------------|--3----------3---------3--|--------------3---3-----------|
--1---------------1-------|--1-----------------1-----|------------------------------|

 F                    A                                         
                      ^                                         
 S S S S S S S S E E E E   E S S S S S S S E S S S S S   E S S E S S E S S E E  
--1---------------------------|-----0-0-0-0-0-0-L-0--0-L-0-0-0-|--0--0-0-L--0-0-L--0-0----3--|
----1---1---------------------|--2-----------------------------|-----------------------------|
--2---2---2---2---------------|--2-----------------------------|-----------------------2-----|
--------3---3---3----3--3--2--|--2------2-----2-L-2--2-L-------|--2----2-L----2-L----2-2--5--|
--------------3---3--5--5--3--|--0------0-----0-L-0--0-L-------|--0----0-L----0-L----0-0-----|
---------------------6--6--3--|--------------------------------|-----------------------------|

 Bb7m              Bb7m                 F                
 E   Q   Q   Q.     E   E E E E E E E   E Q   E E E E E  
--L----5----------------|--3----5--5--5--5--5--3--8--|--L--5----5--5--5--3--8--|
------------------------|----------------------------|-------------------------|
--L---------------------|--0----2--2--2--2--2--0--5--|-----2----2--2--2--0--5--|
--3----3----3----3------|----------------------------|-------------3-----------|
--1----1----1----1------|--1-------------1-----1-----|--8----------------------|
------------------------|----------------------------|--8----------------------|

 C                 Bb7m                               
 E E Q   E E E E   E   Q   Q   Q.     E E E E E E E E  
--L--5--3----1--3--1--3--|--L----5----L----L------|-----1--1--1--1--3--1--8--|
-------------------------|------------------------|--------------------------|
-----2--0-------0--------|------------------------|-----------------0-----5--|
--2----------3-----3--2--|------------------------|-----3--3--3--3-----3-----|
--3----------3-----------|--8---------8----8------|--1-----------1-----1-----|
-------------------------|--6---------6----6------|--------------------------|

 F                                  Bb7m              
 E Q   E E E E E   E E Q   E E E E   E   Q   E E Q   E  
--L--5----1--1--3--1--8--|--L--5--3----1--3--1--3--|--3----5----3--L--5----3--|
-------------------------|-------------------------|--------------------------|
-----2----------------5--|--L-----0-------0--------|--2-----------------------|
----------3--3--5--3-----|-------------3-----3--2--|--3----3----3-----3----3--|
--8----------------------|-----7-------3-----------|--1----1----1-----1----1--|
--8----------------------|-----8-------------------|--------------------------|

                  ^                                  
 E Q.   E E E E   Q   E S E E E. S S   E S E E E. E E E  
--L--5------L-----------|-------1--1-1--0------0-1-|--1--1-1--0---------------|
------------------------|--1----1----------1-------|-------------1---1--1-----|
------------------------|--2-----------------------|-----------------------2--|
-----3---------3--3--2--|--3-----------------------|--------------------------|
-----1---------5--5--3--|------------3-------------|--3----------3---------3--|
---------------6--6--3--|--1---------------1-------|--1-----------------1-----|

 Bb7m              F                                     
 ^     ^ v                             ^                
 Q   E E Q   Q     S S S S S S S S E E E E   Q   E S E E E. S S 
-----------------------|--1---------------------------|-------1--1-1--0------0-1-|
--3-------3--3---------|----1---1---------------------|--1----1----------1-------|
--2----x--2--2----x----|--2---2---2---2---------------|--2-----------------------|
--3----x--3--3----x----|--------3---3---3----3--3--2--|--3-----------------------|
--1----x--1--1----x----|--------------3---3--5--5--3--|------------3-------------|
-----------------------|---------------------6--6--3--|--1---------------1-------|

                    Bb7m              F                   
                    ^     ^ v                            
 E S E E E. E E E   Q   E E Q   Q     S S S S S S S S E E E E  
--1--1-1--0---------------|-----------------------|--1---------------------------|
-------------1---1--1-----|--3-------3--3---------|----1---1---------------------|
-----------------------2--|--2----x--2--2----x----|--2---2---2---2---------------|
--------------------------|--3----x--3--3----x----|--------3---3---3----3--3--2--|
--3----------3---------3--|--1----x--1--1----x----|--------------3---3--5--5--3--|
--1-----------------1-----|-----------------------|---------------------6--6--3--|

                                         Bb7m              
 ^                                                       
 Q   E S S S E S E S S   E S S S E S E E E E   Q   S S S S E Q.    
-------1--3-5-L-1--1-L--1-1-|--1--3-5-L-1--1-L--3--5--1--|--8----L-6-5-------------|
--1----1--------------------|----------------------------|-------------8-6--L------|
--2-------------------------|----------------------------|-------------------------|
--3-------------------------|----------------------------|-------------------------|
------------3---------------|--3-----------3-------3-----|--8------------8--L------|
--1----------------1--------|--1----------------------1--|--8------------8--L------|

 F                                                          
                      ^                                     
 S S S S S S S S E E E E   Q   E S S S E S E S S   E S S S E S E E E E  
------1-----------------------|-------1--3-5-L-1--1-L--1-1-|--1--3-5-L-1--1-L--3--5--1--|
----1-------1-----------------|--1----1--------------------|----------------------------|
--2---2---2-------2-----------|--2-------------------------|----------------------------|
--------3---3---3----3--3--2--|--3-------------------------|----------------------------|
--------------3------5--5--3--|------------3---------------|--3-----------3-------3-----|
------------------1-----------|--1----------------1--------|--1----------------------1--|

 Bb7m               F                    A                    
                                        ^                    
 Q   S S S S E Q.     S S S S S S S S E E E E   E S S S S S S S E S S S S S 
--8----L-6-5-------------|--1---------------------------|-----0-0-0-0-0-0-L-0--0-L-0-0-0-|
-------------8-6--L------|----1---1---------------------|--2-----------------------------|
-------------------------|--2---2---2---2---------------|--2-----------------------------|
-------------------------|--------3---3---3----3--3--2--|--2------2-----2-L-2--2-L-------|
--8------------8---------|--------------3---3--5--5--3--|--0------0-----0-L-0--0-L-------|
--8------------8--L------|---------------------6--6--3--|--------------------------------|

                      Bb7m              Bb7m                
 E S S E S S E S S E E   E   Q   Q   Q.     E   E E E E E E E  
--0--0-0-L--0-0-L--0-0----3--|--L----5----------------|--3----5--5--5--5--5--3--8--|
-----------------------------|------------------------|----------------------------|
-----------------------2-----|--L---------------------|--0----2--2--2--2--2--0--5--|
--2----2-L----2-L----2-2--5--|--3----3----3----3------|----------------------------|
--0----0-L----0-L----0-0-----|--1----1----1----1------|--1-------------1-----1-----|
-----------------------------|------------------------|----------------------------|

 F                 C                 Bb7m             
 E Q   E E E E E   E E Q   E E E E   E   Q   Q   Q.    
--L--5----5--5--5--3--8--|--L--5--3----1--3--1--3--|--L----5----L----L------|
-------------------------|-------------------------|------------------------|
-----2----2--2--2--0--5--|-----2--0-------0--------|------------------------|
-------------3-----------|--2----------3-----3--2--|------------------------|
--8----------------------|--3----------3-----------|--8---------8----8------|
--8----------------------|-------------------------|--6---------6----6------|

                    F                                 
 E E E E E E E E   E Q   E E E E E   E E Q   E E E E  
-----1--1--1--1--3--1--8--|--L--5----1--1--3--1--8--|--L--5--3----1--3--1--3--|
--------------------------|-------------------------|-------------------------|
-----------------0-----5--|-----2----------------5--|--L-----0-------0--------|
-----3--3--3--3-----3-----|----------3--3--5--3-----|-------------3-----3--2--|
--1-----------1-----1-----|--8----------------------|-----7-------3-----------|
--------------------------|--8----------------------|-----8-------------------|

 Bb7m                                Bb7m                  
                                    ^                    
 E   Q   E E Q   E   E Q.   E E E E   E   E E S S E S S E S S 
--3----5----3--L--5----3--|--L--5------L-----------|-------------------------------|
--------------------------|------------------------|-------1--1--1---1--1---1--1---|
--2-----------------------|------------------------|--2------------2------2------2-|
--3----3----3-----3----3--|-----3---------3--3--2--|--3----------------------------|
--1----1----1-----1----1--|-----1---------5--5--3--|--1----------------------------|
--------------------------|---------------6--6--3--|-------------------------------|

                     C                   Dm                    
 E E E E E E S S S S   E E E S S E S S E E   E S S S S S S E S S S S S S 
----------------------------|---------------0------------|---------------0-1--1-0-1-0-1-3-|
-----1--1--1--1--1--1---1---|-----3--3--1-3----1-1-1-----|-----3-1-3-1-3------------------|
--2-------------------2---2-|--0----------------------0--|--2---------------------2-------|
--3---------------------3---|--2----------------------2--|--0---------------------0-------|
--1---------------------1---|--3----------------------3--|--------------------------------|
----------------------------|----------------------------|--------------------------------|

 A                                                   
 E. S S S E E E E E   E. S S S E E Q   E   E Q   Q   Q.    
--5---3-1-3-5--L-----------|--5---3-1-3-5--L-------3--|--L--5----------------|
---------------------------|--------------------------|----------------------|
---------------------------|--------------------------|----------------------|
--2------------2--2--2--2--|--2-----2---2--2--2----5--|--3--3----3----3------|
--0------------0--0--0--0--|--0-----0---0--0--0-------|--1--1----1----1------|
---------------------------|--------------------------|----------------------|

 Bb7m                  F                   C              
 E   E E E E E E E    E Q   E E E E E   E Q   E E E E E  
--3----5--5--5--5--5--3--8--|---L--5----8--8--6--5--3--|-------------1--3--1--3--|
----------------------------|--------------------------|--L--6-------------------|
--0----2--2--2--2--2--0--5--|---L--2----5--5--3--2--0--|--L----------------------|
----------------------------|--------------------------|-------------3--5--3--2--|
--1-------------1-----1-----|---8----------8-----------|-----7----3--3-----3-----|
----------------------------|---8----------------------|-----8-------------------|

 Bb7m                                F                
 E   Q   Q   Q.     E E E E E E E E   E Q   E E  E E E  
--L----5----L----L------|-----1--1--1--1--3--1--8--|--L--5-----------------8--|
------------------------|--------------------------|----------6--6---8--6-----|
------------------------|-----------------------5--|-----------------------5--|
--3---------3----3------|-----3--3--3--3--5--3-----|-----7--------------------|
--1---------1----1------|--1-----------------------|--8-------8--8--10--8-----|
------------------------|--------------6-----6--6--|--8-----------------------|


                  Bb7m                                             
 E Q.   E E E E   E   Q   E Q   Q     Q   E E E E E E   W            
--5---------1--3--1--3--|--3----5----L------------|--L----------L-----------|-------------------||
-----8------------------|-------------------------|-------------------------|-------------------||
------------------------|--2----2----L------------|--L----------L-----------|-------------------||
-----5------3--5--3--2--|--3---------3--3----3----|--3----3--3--L--3--3--2--|--3----------------||
--7---------3-----------|--1---------5--5----5----|--5----5--5--L--5--5--3--|--3----------------||
--8---------------------|------------6--6----6----|--6----6--6-----6--6--3--|--5----------------||

Добавлено: 22.07.2015
Другие материалы по этой песне:
  • Аккорды и текст

Страница создана 20.04.2014
http://primanota.ru/alicia-keys/empire-state-of-mind-part-ii-chords.htm
Привет, Гость.
Предлагаем пройти революционный курс по гитаре.
Подарок от PrimaNota.Ru, забирай!