PrimaNota.ru - самый крупный в мире бесплатный архив песенных текстов, аккордов, табулатур и нот


Alice Phoebe Lou - Girl On An Island Live - таба, видео

Регистрация Запомнить меня
Войти через:  Facebook Google Twitter Vk Yandex Mail.ru

Alice Phoebe Lou - Girl On An Island Live - таба, видео

Печатать
Просмотров: 62
-------------------------------------------------------------------------------
                             GIRL ON AN ISLAND - Alice Phoebe Lou
-------------------------------------------------------------------------------
Tabbed by: Clarise de Ramos
Reference: https://www.youtube.com/watch?v=BepU74BYOtg

Tuning: EADGBe

Intro~There once was an island...
e|---------------------------------------------------------------------------|
B|---------------------------------------------------------------------------|
G|---4-4-4-4-4-4-4-4-4-4-4--4-4-4-4-4-4-4-4-4-4-4--5-5-5-5-5-5-5-5-5-5-5-----|
D|----0-0---0-0---2-2---2-0--4-4---4-4---5-5---5-0--5-5---5-5---4-4---4-0----|
A|---------------------------------------------------------------------------|
E|--3-----3-----3-----3----3-----3-----3-----3----5-----5-----5-----5--------|

e|---------------------------------------------------------------------------|
B|---------------------------------------------------------------------------|
G|--4-4-4-4-4-4-4-4-4-4-4-4--------------------------------------------------|
D|---4-4---4-4---2-2---2-2---------------------------------------------------| (x3 the whole thing)
A|---------------------------------------------------------------------------|
E|-3-----3-----3-----3-------------------------------------------------------|



When the night sky's your only friend...
e|---------------------------------------------------------------------------|
B|---------------------------------------------------------------------------|
G|--4-4-4-4-4-4-4-4-4-4-4---4-4-4-4-4-4-4-4-4-4-4-4--------------------------|
D|---0-0---0-0---2-2---2-0---4-4---4-4---2-2---2-2---------------------------|
A|---------------------------------------------------------------------------|
E|-3-----3-----3-----3-----3-----3-----3-----3-------------------------------|

When you're tired of playing pretend...
e|---------------------------------------------------------------------------|
B|---------------------------------------------------------------------------|
G|--4-4-4-4-4-4-4-4-4-4-4---4-4-4-4-4-4-4-4-4-4-4-4--------------------------|
D|---0-0---0-0---2-2---2-0---4-4---4-4---5-5---5-5---------------------------|
A|---------------------------------------------------------------------------|
E|-3-----3-----3-----3-----3-----3-----3-----3-------------------------------|

When the ground under your feet...
e|---------------------------------------------------------------------------|
B|---------------------------------------------------------------------------|
G|--5-5-5-5-5-5-5-5-5-5-5-5--------------------------------------------------|
D|---5-5---5-5---4-4---4-4---------------------------------------------------| (x4)
A|---------------------------------------------------------------------------|
E|-5-----5-----5-----5-------------------------------------------------------|



When you're not free...
e|---------------------------------------------------------------------------|
B|---------------------------------------------------------------------------|
G|--4-4-4-4-4-4-4-4-4-4-4-4--------------------------------------------------|
D|---0-0---0-0---2-2---2-2---------------------------------------------------| (x2)
A|---------------------------------------------------------------------------|
E|-3-----3-----3-----3-------------------------------------------------------|

There's no time to be on that island with me far-
e|---------------------------------------------------------------------------|
B|---------------------------------------------------------------------------|
G|--4-4-4-4-4-4-4-4-4-4-4-4--------------------------------------------------|
D|---0-0---2-2---4-4---5-5---------------------------------------------------|
A|---------------------------------------------------------------------------|
E|-3-----3-----3-----3-------------------------------------------------------|

-away from the city...
e|---------------------------------------------------------------------------|
B|---------------------------------------------------------------------------|
G|--5-5-5-5-5-5-5-5-5-5-5-5--------------------------------------------------|
D|---5-5---5-5---4-4---4-4---------------------------------------------------| (x3)
A|---------------------------------------------------------------------------|
E|-5-----5-----5-----5-------------------------------------------------------|

Outro
e|---------------------------------------------------------------------------|
B|---------------------------------------------------------------------------|
G|--4-4-4-4-4-4-4-4-4-4-4----------------------------------------------------|
D|---0-0---0-0---2-2---2-0---------------------------------------------------| (x2)
A|---------------------------------------------------------------------------|
E|-3-----3-----3-----3-------------------------------------------------------|


************************************

| /   slide up
| \   slide down
| h   hammer-on
| p   pull-off
| ~   vibrato
| +   harmonic
| x   Mute note
| b   Bend
| pb  Pre-bend
| br  Bend release
| pbr Pre-bend release
| brb Bend release bend

************************************
Добавлено: 02.06.2016
Вам также может быть интересно:
Другие материалы по этой песне:
  • Аккорды и текст

Страница создана 02.06.2016
http://primanota.ru/alice-phoebe-lou/girl-on-an-island-live-chords.htm
Привет, Гость.
Предлагаем пройти революционный курс по гитаре.
Подарок от PrimaNota.Ru, забирай!